Let her go

Chords

01234567891011121314151617181920212223
E
B
G
D
A
E
B
0 1 2 3 4 5 6 7 8 9 10 11 12 13 14 15 16 17 18 19 20 21 22 23
(/) Slide Up  (\) Slide Down  (h) Hammer On  (p) Pull Off  (b) Bend (r) Release (v) Vibrato

Capo Fret 7

Stave 1:

E|-----0-------------------------0-----------------0-------------------0--------------0----------------------------3p0----------------0-----------------------------
B|--3-----3--1-------1-----------1-----------1--3-----3--1-------1--------3--------3-----3--1-------1-----------1-------------1h3-----------1-----------1-----1-----
G|--------------0h2--------2-----------2--------------------0h2-----2-----------0--------------0h2--------2----------------2----------------------2-----------------
D|-------------------3--------3-----------3-----------0----------2-----2-----0----------------------3--------3----------3----------0--------2--------2--------2-----
A|----------------------------------------------------------0-------0---------------------------------------------------------3----------0-----0-----------0--------
E|----------------------1-----------1-----------3-------------------------3--------3-----------1-------1------------------------------------------------------------

Stave 2:

E|-----0-------------------------0-----------------0-------------------0--------------0----------------------------3p0----------------0--------------------------------0-------
B|--3-----3--1-------1-----------1-----------1--3-----3--1-------1--------3--------3-----3--1-------1-----------1-------------1h3-----------1-----------1-----1--1--3-----3p1--
G|--------------0h2--------2-----------2--------------------0h2-----2-----------0--------------0h2--------2----------------2----------------------2----------------------------
D|-------------------3--------3-----------3-----------0----------2-----2-----0----------------------3--------3----------3----------0--------2--------2--------2-----0-----2----
A|----------------------------------------------------------0-------0---------------------------------------------------------3----------0-----0-----------0-------------------
E|--------------1-------1-----------1-----------3-------------------------3--------3-----------1-------1-----------------------------------------------------------------------

Stave 3:

E|-----------------------------0---------------0-------------------0--------------------------------------------------------------------0--0-------
B|--1--1-----1-----1-----1--3-----3p1--3--3p1-----3--3p1-----1--3-----3p1--3p1-------------1-----1-----------1-----0-----------0-----3--------3p1--
G|--------2-----2---------------------------------------------------------------2--2--2p0--------------0-----------------0-------------------------
D|-----3-----------3-----2--------2-------0----------0-------2--------2---------3----------3-----2--------2--------0--------0--------0--------0----
A|--------------------3-----3-----------------------------0-----0-----------------------------3-----3----------------------------------------------
E|--1--------1-------------------------3-------3---------------------------1----------1-------------------------3-----3-----------3--------3-------

Stave 4:

E|-----------------------------0---------------0-------------------0----------------------------------------------------0----------
B|--1--1-----1-----1-----1--3-----3p1--3--3p1-----3--3p1-----1--3-----3p1--3p1-------------1-----1-----------1--0--3p1-----3--3p1--
G|--------2-----2---------------------------------------------------------------2--2--2p0--------------0---------------------------
D|-----3-----------3-----2--------2-------0----------0-------2--------2---------3----------3-----2--------2------------------------
A|--------------------3-----3-----------------------------0-----0-----------------------------3-----3------------------------------
E|--1--------1-------------------------3-------3---------------------------1----------1-------------------------3------------------

strumming

E|-----0--0--0--0--0--0--0--0--0--0--0--0--0--0--0--0--0--0-----0--0--0--0--0--0--0--0--0--0--0--0--0--0--0--0-----
B|-----1--1--1--1--1--1--1--1--0--0--0--0--0--0--0--0--0--0-----1--1--1--1--1--1--1--1--0--1--1--1--1--0--0--0-----
G|-----2--2--2--2--2--2--2--2--0--0--0--0--0--0--0--0--0--0-----2--2--2--2--2--2--2--2--0--0--0--0--0--0--0--0-----
D|-----2--2--3--3--3--3--3--3--0--0--0--0--0--2--2--2--2--2-----2--2--3--3--3--3--3--3--0--0--0--0--0--0--0--0-----
A|--0--0--0--3--3--3--3--3--3--2--2--2--2--2--2--2--2--2--2--0--0--0--3--3--3--3--3--3--2--2--2--2--2--2--2--2-----
E|-----------------------------3--3--3--3--3--0--0--0--0--0-----------------------------3--3--3--3--3--3--3--3-----

Stave 6:

E|-----0--0-------------------1p0--0----------------------------0-----------0-----------0-----------0-----------------
B|-----------3p1--1----------------------------3-----1p0--0-----0--3--1-----1--3--1-----1--1--0-----0--0--------------
G|-------------------------2----------------0-------------0-----0--------2--2--------2--2-----------0-----------------
D|----------------------3----------------0----------------2--2--2-----------2-----------3-----------0-----------------
A|--------------------------------------------------------------2--------0--0-----------0-----------0-----------------
E|--------x----------1----------------3-----------x-------0--0--x-----------x--------1--x--------3--x-----3-----------

Stave 7:

E|--
B|--
G|--
D|--
A|--
E|--

							http://www.guitartabcreator.com
Instruments
{"strings":[[[".",0,".",".",".",".",".",".",".",".",".",0,".",".",".",".",".",0,".",".",".",".",".",".",".",0,".",".",".",".",0,".",".",".",".",".",".",".",".",".",".",3,"p",0,".",".",".",".",".",".",0,".",".",".",".",".",".",".",".","."],[3,".",3,1,".",".",".",1,".",".",".",1,".",".",".",1,3,".",3,1,".",".",".",1,".",".",3,".",".",3,".",3,1,".",".",".",1,".",".",".",1,".",".",".",".",".",1,"h",3,".",".",".",1,".",".",".",1,".",1,"."],[".",".",".",".",0,"h",2,".",".",2,".",".",".",2,".",".",".",".",".",".",0,"h",2,".",2,".",".",".",0,".",".",".",".",0,"h",2,".",".",2,".",".",".",".",".",".",2,".",".",".",".",".",".",".",".",2,".",".",".",".","."],[".",".",".",".",".",".",".",3,".",".",3,".",".",".",3,".",".",".",0,".",".",".",".",2,".",2,".",0,".",".",".",".",".",".",".",".",3,".",".",3,".",".",".",".",3,".",".",".",".",0,".",".",2,".",".",2,".",".",2,"."],[".",".",".",".",".",".",".",".",".",".",".",".",".",".",".",".",".",".",".",".",0,".",".",".",0,".",".",".",".",".",".",".",".",".",".",".",".",".",".",".",".",".",".",".",".",".",3,".",".",".",".",0,".",0,".",".",".",0,".","."],[".",".",".",".",".",1,".",".",1,".",".",".",1,".",".",".",3,".",".",".",".",".",".",".",".",".",3,".",".",3,".",".",".",1,".",".",".",1,".",".",".",".",".",".",".",".",".",".",".",".",".",".",".",".",".",".",".",".",".","."]],[[".",0,".",".",".",".",".",".",".",".",".",0,".",".",".",".",".",0,".",".",".",".",".",".",".",0,".",".",".",".",0,".",".",".",".",".",".",".",".",".",".",3,"p",0,".",".",".",".",".",".",0,".",".",".",".",".",".",".",".",".",".",0,".",".","."],[3,".",3,1,".",".",".",1,".",".",".",1,".",".",".",1,3,".",3,1,".",".",".",1,".",".",3,".",".",3,".",3,1,".",".",".",1,".",".",".",1,".",".",".",".",".",1,"h",3,".",".",".",1,".",".",".",1,".",1,1,3,".",3,"p",1],[".",".",".",".",0,"h",2,".",".",2,".",".",".",2,".",".",".",".",".",".",0,"h",2,".",2,".",".",".",0,".",".",".",".",0,"h",2,".",".",2,".",".",".",".",".",".",2,".",".",".",".",".",".",".",".",2,".",".",".",".",".",".",".",".",".","."],[".",".",".",".",".",".",".",3,".",".",3,".",".",".",3,".",".",".",0,".",".",".",".",2,".",2,".",0,".",".",".",".",".",".",".",".",3,".",".",3,".",".",".",".",3,".",".",".",".",0,".",".",2,".",".",2,".",".",2,".",0,".",2,".","."],[".",".",".",".",".",".",".",".",".",".",".",".",".",".",".",".",".",".",".",".",0,".",".",".",0,".",".",".",".",".",".",".",".",".",".",".",".",".",".",".",".",".",".",".",".",".",3,".",".",".",".",0,".",0,".",".",".",0,".",".",".",".",".",".","."],[".",".",".",".",1,".",".",".",1,".",".",".",1,".",".",".",3,".",".",".",".",".",".",".",".",".",3,".",".",3,".",".",".",1,".",".",".",1,".",".",".",".",".",".",".",".",".",".",".",".",".",".",".",".",".",".",".",".",".",".",".",".",".",".","."]],[[".",".",".",".",".",".",".",".",".",0,".",".",".",".",".",".",".",0,".",".",".",".",".",".",".",0,".",".",".",".",".",".",".",".",".",".",".",".",".",".",".",".",".",".",".",".",".",".",".",".",".",".",0,0,".",".","."],[1,1,".",1,".",1,".",1,3,".",3,"p",1,3,3,"p",1,".",3,3,"p",1,".",1,3,".",3,"p",1,3,"p",1,".",".",".",".",".",1,".",1,".",".",".",1,".",0,".",".",".",0,".",3,".",".",3,"p",1],[".",".",2,".",2,".",".",".",".",".",".",".",".",".",".",".",".",".",".",".",".",".",".",".",".",".",".",".",".",".",".",".",2,2,2,"p",0,".",".",".",".",0,".",".",".",".",".",0,".",".",".",".",".",".",".",".","."],[".",3,".",".",".",3,".",2,".",".",2,".",".",".",0,".",".",".",".",0,".",".",".",2,".",".",2,".",".",".",".",".",3,".",".",".",".",3,".",2,".",".",2,".",".",0,".",".",0,".",".",0,".",".",0,".","."],[".",".",".",".",".",".",3,".",3,".",".",".",".",".",".",".",".",".",".",".",".",".",0,".",0,".",".",".",".",".",".",".",".",".",".",".",".",".",3,".",3,".",".",".",".",".",".",".",".",".",".",".",".",".",".",".","."],[1,".",".",1,".",".",".",".",".",".",".",".",".",3,".",".",".",3,".",".",".",".",".",".",".",".",".",".",".",1,".",".",".",".",1,".",".",".",".",".",".",".",".",".",3,".",3,".",".",".",3,".",".",3,".",".","."]],[[".",".",".",".",".",".",".",".",".",0,".",".",".",".",".",".",".",0,".",".",".",".",".",".",".",0,".",".",".",".",".",".",".",".",".",".",".",".",".",".",".",".",".",".",".",".",".",".",0,".",".",".","."],[1,1,".",1,".",1,".",1,3,".",3,"p",1,3,3,"p",1,".",3,3,"p",1,".",1,3,".",3,"p",1,3,"p",1,".",".",".",".",".",1,".",1,".",".",".",1,0,3,"p",1,".",3,3,"p",1],[".",".",2,".",2,".",".",".",".",".",".",".",".",".",".",".",".",".",".",".",".",".",".",".",".",".",".",".",".",".",".",".",2,2,2,"p",0,".",".",".",".",0,".",".",".",".",".",".",".",".",".",".","."],[".",3,".",".",".",3,".",2,".",".",2,".",".",".",0,".",".",".",".",0,".",".",".",2,".",".",2,".",".",".",".",".",3,".",".",".",".",3,".",2,".",".",2,".",".",".",".",".",".",".",".",".","."],[".",".",".",".",".",".",3,".",3,".",".",".",".",".",".",".",".",".",".",".",".",".",0,".",0,".",".",".",".",".",".",".",".",".",".",".",".",".",3,".",3,".",".",".",".",".",".",".",".",".",".",".","."],[1,".",".",1,".",".",".",".",".",".",".",".",".",3,".",".",".",3,".",".",".",".",".",".",".",".",".",".",".",1,".",".",".",".",1,".",".",".",".",".",".",".",".",".",3,".",".",".",".",".",".",".","."]],[[".",0,0,0,0,0,0,0,0,0,0,0,0,0,0,0,0,0,0,".",0,0,0,0,0,0,0,0,0,0,0,0,0,0,0,0,"."],[".",1,1,1,1,1,1,1,1,0,0,0,0,0,0,0,0,0,0,".",1,1,1,1,1,1,1,1,0,1,1,1,1,0,0,0,"."],[".",2,2,2,2,2,2,2,2,0,0,0,0,0,0,0,0,0,0,".",2,2,2,2,2,2,2,2,0,0,0,0,0,0,0,0,"."],[".",2,2,3,3,3,3,3,3,0,0,0,0,0,2,2,2,2,2,".",2,2,3,3,3,3,3,3,0,0,0,0,0,0,0,0,"."],[0,0,0,3,3,3,3,3,3,2,2,2,2,2,2,2,2,2,2,0,0,0,3,3,3,3,3,3,2,2,2,2,2,2,2,2,"."],[".",".",".",".",".",".",".",".",".",3,3,3,3,3,0,0,0,0,0,".",".",".",".",".",".",".",".",".",3,3,3,3,3,3,3,3,"."]],[[".",0,0,".",".",".",".",".",".",".",1,"p",0,0,".",".",".",".",".",".",".",".",".",".",0,".",".",".",0,".",".",".",0,".",".",".",0,".",".",".",".","."],[".",".","_",3,"p",1,1,".",".",".",".",".",".",".",".",".",".",3,".",1,"p",0,0,".",0,3,1,".",1,3,1,".",1,1,0,".",0,0,".",".",".","."],[".",".","_",".",".",".",".",".",".",2,".",".",".",".",".",".",0,".",".",".",".",".",0,".",0,".",".",2,2,".",".",2,2,".",".",".",0,".",".",".",".","."],[".",".","_",".",".",".",".",".",3,".",".",".",".",".",".",0,".",".",".",".",".",".",2,2,2,".",".",".",2,".",".",".",3,".",".",".",0,".",".",".",".","."],[".",".","_",".",".",".",".",".",".",".",".",".",".",".",".",".",".",".",".",".",".",".",".",".",2,".",".",0,0,".",".",".",0,".",".",".",0,".",".",".",".","."],[".",".","x",".",".",".",".",1,".",".",".","x",".",".",3,".",".",".","x",".",".",".",0,0,"x",".",".",".","x",".",".",1,"x",".",".",3,"x",".",3,".",".","."]],[[],[],[],[],[],[]]],"numberofstrings":6,"notes":["E","B","G","D","A","E","B"],"capo":"7","stringnotes":["E4","B3","G3","D3","A2","E2"],"comments":["Stave 1:","Stave 2:","Stave 3:","Stave 4:","strumming","Stave 6:","Stave 7:"],"timing":[[null,"W",null,null,null,null,null,null,null,null,null,null,null,null,null,null,null,null,null,null,null,null,null,null,null,null,null,null,null,null,null,null,null,null,null,null,null,null,null,null,null,null,null,null,null,null,null,null,null,null,null,null,null,null,null,null,null,null,null,null],[null,null,"W","W","W","W",null,"W","W","W","W","W","W","W","W","W","W","W","W","W","W",null,"W","W","W","W","W","W","W","W","W","W","W","W","W",null,"W","W","W","W","W","W","W",null,"W","W","W","W",null,"W","W","W","W","W","W","W","W","W","W","W","W","W",null,"W",null,"W"],[null,"W","W",null,"W",null,"W","W","W","W","W","W",null,"W",null,"W",null,"W","W","W","W",null,"W","W","W","W","W","W",null,"W","W",null,"W","W","W","W",null,"W","W",null,"W","W","W","W","W","W","W","W","W","W","W","W","W","W","W","W",null,"W"],[null,"W","W","W","W","W","W","W","W","W","W","W",null,"W","W","W",null,"W","W","W","W",null,"W","W","W","W","W","W",null,"W","W",null,"W","W","W","W",null,"W",null,"W","W","W","W","W","W","W","W",null,"W","W","W","W",null,"W"],[null,"W","W","W","W","W","W","W","W","W","W","W","W","W","W","W","W","W","W","W","W",null,null,null,null,null,null,null,null,"W",null,null,null,null,null,null,null,"W"],[null,null,"W","W","W",null,"W","W","W","W","W","W",null,"W","W","W","W","W","W",null,null,null,null,null,null,null,null,null,null,null,null,null,null,null,null,null,null,null,null,null,"W","W","W"],[]],"timingvisible":false,"tabcounter":0,"stave":6,"totalstaves":7,"instrument":"6guitar","selectedtuning":"6_standard","version":"13"}

Member for

1 week 4 days
Submitted by palan.petr on Sat, 2020-11-21 06:36