Pirates Theme

01234567891011121314151617181920212223
E
B
G
D
A
E
B
0 1 2 3 4 5 6 7 8 9 10 11 12 13 14 15 16 17 18 19 20 21 22 23
(/) Slide Up  (\) Slide Down  (h) Hammer On  (p) Pull Off  (b) Bend (r) Release (v) Vibrato

Stave 1:

E|---------------------------------------------------------------------------------------------------------------------------------------------------------
B|---------------------------------------------------------------------------------------------------------------------------------------------------------
G|---------------------------------------------------------------------------------------------------------------------------------------------------------
D|--0--0--0--0--0--0--0--0--0--0--0--0--0--0--0--0--0--0-----------------2--3--3--3--5--2--2--------------------------------2--3--3--3--5--2--2------------
A|--------------------------------------------------------0--3--5--5--5-----------------------5--3--3--5-----0--3--5--5--5-----------------------5--3--5v--
E|---------------------------------------------------------------------------------------------------------------------------------------------------------

Stave 2:

E|----------------------------------------------------------------------------------------------------------------------------------------------------------------------
B|----------------------------------------------------------------------------------------------------------------------------------------------------------------------
G|------------------------------------------------------------------------------------------------------------------------------------------12--------------------------
D|-----------------2--5--5--5--7--8--8--7--5--7--------------------2--3-----------------------------------------12--12--12--14--15--15--15------14--14--12----------12--
A|--0--3--5--5--5--------------------------------5-----0--3--5--5--------5-----0--3--5--5--5--3--5v-----12--15----------------------------------------------15--15------
E|----------------------------------------------------------------------------------------------------------------------------------------------------------------------

Stave 3:

E|--------------------------------------------------------------------------------------------------------------------------------------------------------------------------------------------
B|--------------------------------------------------------------------------------------------------------------------------------------------------------------------------------------------
G|--------------------------------------12--------------------------------------------------12--12--12--14--15--15--14--12--14----------------------------------------------------------------
D|----------12--12--12--14--15--15--15------14--14--12------12v-------------12--12--12--14--------------------------------------12-------------12--12--14--15--12-------------12--12--12------
A|--12--15----------------------------------------------15----------12--15-------------------------------------------------------------12--15-------------------------12--15--------------15--
E|--------------------------------------------------------------------------------------------------------------------------------------------------------------------------------------------

Stave 4:

E|-------
B|-------
G|-------
D|--12v--
A|-------
E|-------

							http://www.guitartabcreator.com
Chords

Instruments
{"strings":[[[".",".",".",".",".",".",".",".",".",".",".",".",".",".",".",".",".",".",".",".",".",".",".",".",".",".",".",".",".",".",".",".",".",".","_",".",".",".",".",".",".",".",".",".",".",".",".",".",".",".","."],[".",".",".",".",".",".",".",".",".",".",".",".",".",".",".",".",".",".",".",".",".",".",".",".",".",".",".",".",".",".",".",".",".",".","_",".",".",".",".",".",".",".",".",".",".",".",".",".",".",".","."],[".",".",".",".",".",".",".",".",".",".",".",".",".",".",".",".",".",".",".",".",".",".",".",".",".",".",".",".",".",".",".",".",".",".","_",".",".",".",".",".",".",".",".",".",".",".",".",".",".",".","."],[0,0,0,0,0,0,0,0,0,0,0,0,0,0,0,0,0,0,".",".",".",".",".",2,3,3,3,5,2,2,".",".",".",".","_",".",".",".",".",".",2,3,3,3,5,2,2,".",".",".","."],[".",".",".",".",".",".",".",".",".",".",".",".",".",".",".",".",".",".",0,3,5,5,5,".",".",".",".",".",".",".",5,3,3,5,"_",0,3,5,5,5,".",".",".",".",".",".",".",5,3,5,"v"],[".",".",".",".",".",".",".",".",".",".",".",".",".",".",".",".",".",".",".",".",".",".",".",".",".",".",".",".",".",".",".",".",".",".","_",".",".",".",".",".",".",".",".",".",".",".",".",".",".",".","."]],[[".",".",".",".",".",".",".",".",".",".",".",".",".",".",".",".","_",".",".",".",".",".",".",".","_",".",".",".",".",".",".",".",".","_",".",".",".",".",".",".",".",".",".",".",".",".",".",".",".","."],[".",".",".",".",".",".",".",".",".",".",".",".",".",".",".",".","_",".",".",".",".",".",".",".","_",".",".",".",".",".",".",".",".","_",".",".",".",".",".",".",".",".",".",".",".",".",".",".",".","."],[".",".",".",".",".",".",".",".",".",".",".",".",".",".",".",".","_",".",".",".",".",".",".",".","_",".",".",".",".",".",".",".",".","_",".",".",".",".",".",".",".",".",".",12,".",".",".",".",".","."],[".",".",".",".",".",2,5,5,5,7,8,8,7,5,7,".","_",".",".",".",".",2,3,".","_",".",".",".",".",".",".",".",".","_",".",".",12,12,12,14,15,15,15,".",14,14,12,".",".",12],[0,3,5,5,5,".",".",".",".",".",".",".",".",".",".",5,"_",0,3,5,5,".",".",5,"_",0,3,5,5,5,3,5,"v","_",12,15,".",".",".",".",".",".",".",".",".",".",".",15,15,"."],[".",".",".",".",".",".",".",".",".",".",".",".",".",".",".",".","_",".",".",".",".",".",".",".","_",".",".",".",".",".",".",".",".","_",".",".",".",".",".",".",".",".",".",".",".",".",".",".",".","."]],[[".",".",".",".",".",".",".",".",".",".",".",".",".",".",".",".","_",".",".",".",".",".",".",".",".",".",".",".",".",".",".",".",".","_",".",".",".",".",".",".",".","_",".",".",".",".",".","."],[".",".",".",".",".",".",".",".",".",".",".",".",".",".",".",".","_",".",".",".",".",".",".",".",".",".",".",".",".",".",".",".",".","_",".",".",".",".",".",".",".","_",".",".",".",".",".","."],[".",".",".",".",".",".",".",".",".",12,".",".",".",".",".",".","_",".",".",".",".",".",".",12,12,12,14,15,15,14,12,14,".","_",".",".",".",".",".",".",".","_",".",".",".",".",".","."],[".",".",12,12,12,14,15,15,15,".",14,14,12,".",12,"v","_",".",".",12,12,12,14,".",".",".",".",".",".",".",".",".",12,"_",".",".",12,12,14,15,12,"_",".",".",12,12,12,"."],[12,15,".",".",".",".",".",".",".",".",".",".",".",15,".",".","_",12,15,".",".",".",".",".",".",".",".",".",".",".",".",".",".","_",12,15,".",".",".",".",".","_",12,15,".",".",".",15],[".",".",".",".",".",".",".",".",".",".",".",".",".",".",".",".","_",".",".",".",".",".",".",".",".",".",".",".",".",".",".",".",".","_",".",".",".",".",".",".",".","_",".",".",".",".",".","."]],[[".","."],[".","."],[".","."],[12,"v"],[".","."],[".","."]]],"numberofstrings":6,"notes":["E","B","G","D","A","E","B"],"capo":0,"stringnotes":["E4","B3","G3","D3","A2","E2"],"comments":["Stave 1:","Stave 2:","Stave 3:","Stave 4:"],"timing":[["W","W","W","W","W","W","W","W","W","W","W","W","W","W","W","W","W","W","W","W","W","W","W","W","W","W","W","W","W","W","W","W","W","W",null,"W","W","W","W","W","W","W","W","W","W","W","W","W","W","W"],["W","W","W","W","W","W","W","W","W","W","W","W","W","W","W","W",null,"W","W","W","W","W","W","W",null,"W","W","W","W","W","W","W",null,null,"W","W","W","W","W","W","W","W","W","W","W","W","W","W","W","W"],["W","W","W","W","W","W","W","W","W","W","W","W","W","W","W",null,null,"W","W","W","W","W","W","W","W","W","W","W","W","W","W","W","W",null,"W","W","W","W","W","W","W",null,"W","W","W","W","W","W","W"],["W"]],"timingvisible":false,"tabcounter":2,"stave":3,"totalstaves":4,"instrument":"6guitar","selectedtuning":"6_standard","version":"13"}

Member for

3 months 2 weeks
Submitted by pakistan on Thu, 2020-12-03 20:12