Peanuts Theme

01234567891011121314151617181920212223
E
B
G
D
A
E
B
0 1 2 3 4 5 6 7 8 9 10 11 12 13 14 15 16 17 18 19 20 21 22 23
(/) Slide Up  (\) Slide Down  (h) Hammer On  (p) Pull Off  (b) Bend (r) Release (v) Vibrato

Stave 1:

E|---------------------------------------------------------------------------------------------------------------------------------------------
B|---------------------------------------------------------------------------------------------------------------------------------------------
G|---------------------------------------------------------------------------------------------------------------------------------------------
D|--------6--------6--------------------------6--------6-----------------------6--8--10--10--8--6--8--6-----6--8--10--10-----------6--------6--
A|-----6--------6--------6--8-----6--8-----6--------6--------6--8-----6--8------------------------------------------------------6--------6-----
E|--4--------4--------4--------4--------4--------4--------4--------4---------------------------------------------------------4--------4--------

Stave 2:

E|-------------------------------------------------------------------------------------------------------------------------------------------------------
B|-------------------------------------------------------------------------------------------------------------------------------------------------------
G|----------------------------------------------------------------------------------------------------6--6--6--8-----8--10--10--8--10--10--8--10--10--8--
D|--6--8--10--10--8--6--8--6-----6--8--8--------------------------6--8--8--------------------------6-----------------------------------------------------
A|----------------------------------------------6--8-----6--8--------------------6--8-----6--8-----------------------------------------------------------
E|-------------------------------------------4--------4-----------------------4--------4-----------------------------------------------------------------

Stave 3:

E|-----------------------------------------------------------------------------------------------------------------
B|-----------------------------------------------------------------------------------------------------------------
G|-----6--6--6--8-----8--10--10--8--10--10--8--10--10--8-----6--6--6--8-----8--10--10--8--10--10--8--10--10--8-----
D|--6-----------------------------------------------------6--------------------------------------------------------
A|-----------------------------------------------------------------------------------------------------------------
E|-----------------------------------------------------------------------------------------------------------------

Stave 4:

E|------------------------------------------------------------------------------------------
B|------------------------------------------------------------------------------------------
G|------------------------------------------------------------------------------------------
D|--------6--------6--------------------------------6--------6------------------------------
A|-----6--------6-----------6--8-----6--8--------6--------6-----------6--8-----6--8---------
E|--4--------4-----------4--------4-----------4--------4-----------4--------4-----------4v--

							http://www.guitartabcreator.com
Chords

Tab Notes
spaces separate all pauses, long or short - LAST NOTE (4 on low E) is POWER CHORD
Instruments
{"strings":[[[".",".",".",".",".",".",".",".",".",".",".",".",".",".",".",".",".",".",".",".",".",".",".",".","_",".",".",".",".",".",".",".",".","_",".",".",".",".","_",".",".",".",".",".","."],[".",".",".",".",".",".",".",".",".",".",".",".",".",".",".",".",".",".",".",".",".",".",".",".","_",".",".",".",".",".",".",".",".","_",".",".",".",".","_",".",".",".",".",".","."],[".",".",".",".",".",".",".",".",".",".",".",".",".",".",".",".",".",".",".",".",".",".",".",".","_",".",".",".",".",".",".",".",".","_",".",".",".",".","_",".",".",".",".",".","."],[".",".",6,".",".",6,".",".",".",".",".",".",".",".",6,".",".",6,".",".",".",".",".",".","_",6,8,10,10,8,6,8,6,"_",6,8,10,10,"_",".",".",6,".",".",6],[".",6,".",".",6,".",".",6,8,".",6,8,".",6,".",".",6,".",".",6,8,".",6,8,"_",".",".",".",".",".",".",".",".","_",".",".",".",".","_",".",6,".",".",6,"."],[4,".",".",4,".",".",4,".",".",4,".",".",4,".",".",4,".",".",4,".",".",4,".",".","_",".",".",".",".",".",".",".",".","_",".",".",".",".","_",4,".",".",4,".","."]],[[".",".",".",".",".",".",".",".","_",".",".",".","_",".",".",".",".",".",".","_",".",".",".","_",".",".",".",".",".",".","_",".",".",".",".",".","_",".",".",".",".",".",".",".",".",".","."],[".",".",".",".",".",".",".",".","_",".",".",".","_",".",".",".",".",".",".","_",".",".",".","_",".",".",".",".",".",".","_",".",".",".",".",".","_",".",".",".",".",".",".",".",".",".","."],[".",".",".",".",".",".",".",".","_",".",".",".","_",".",".",".",".",".",".","_",".",".",".","_",".",".",".",".",".",".","_",".",6,6,6,8,"_",8,10,10,8,10,10,8,10,10,8],[6,8,10,10,8,6,8,6,"_",6,8,8,"_",".",".",".",".",".",".","_",6,8,8,"_",".",".",".",".",".",".","_",6,".",".",".",".","_",".",".",".",".",".",".",".",".",".","."],[".",".",".",".",".",".",".",".","_",".",".",".","_",".",6,8,".",6,8,"_",".",".",".","_",".",6,8,".",6,8,"_",".",".",".",".",".","_",".",".",".",".",".",".",".",".",".","."],[".",".",".",".",".",".",".",".","_",".",".",".","_",4,".",".",4,".",".","_",".",".",".","_",4,".",".",4,".",".","_",".",".",".",".",".","_",".",".",".",".",".",".",".",".",".","."]],[[".",".",".",".",".","_",".",".",".",".",".",".",".",".",".",".",".",".",".",".",".","_",".",".",".",".",".",".",".",".",".",".","_"],[".",".",".",".",".","_",".",".",".",".",".",".",".",".",".",".",".",".",".",".",".","_",".",".",".",".",".",".",".",".",".",".","_"],[".",6,6,6,8,"_",8,10,10,8,10,10,8,10,10,8,".",6,6,6,8,"_",8,10,10,8,10,10,8,10,10,8,"_"],[6,".",".",".",".","_",".",".",".",".",".",".",".",".",".",".",6,".",".",".",".","_",".",".",".",".",".",".",".",".",".",".","_"],[".",".",".",".",".","_",".",".",".",".",".",".",".",".",".",".",".",".",".",".",".","_",".",".",".",".",".",".",".",".",".",".","_"],[".",".",".",".",".","_",".",".",".",".",".",".",".",".",".",".",".",".",".",".",".","_",".",".",".",".",".",".",".",".",".",".","_"]],[[".",".",".",".",".",".","_",".",".",".",".",".",".","_",".",".",".",".",".",".","_",".",".",".",".",".",".","_",".","."],[".",".",".",".",".",".","_",".",".",".",".",".",".","_",".",".",".",".",".",".","_",".",".",".",".",".",".","_",".","."],[".",".",".",".",".",".","_",".",".",".",".",".",".","_",".",".",".",".",".",".","_",".",".",".",".",".",".","_",".","."],[".",".",6,".",".",6,"_",".",".",".",".",".",".","_",".",".",6,".",".",6,"_",".",".",".",".",".",".","_",".","."],[".",6,".",".",6,".","_",".",6,8,".",6,8,"_",".",6,".",".",6,".","_",".",6,8,".",6,8,"_",".","."],[4,".",".",4,".",".","_",4,".",".",4,".",".","_",4,".",".",4,".",".","_",4,".",".",4,".",".","_",4,"v"]]],"numberofstrings":6,"notes":["E","B","G","D","A","E","B"],"capo":0,"stringnotes":["E4","B3","G3","D3","A2","E2"],"comments":["Stave 1:","Stave 2:","Stave 3:","Stave 4:"],"timing":[["W","W","W","W","W","W","W","W","W","W","W","W","W","W","W","W","W","W","W","W","W","W","W","W",null,"W","W","W","W","W","W","W","W","W","W","W","W","W",null,"W","W","W","W","W","W"],["W","W","W","W","W","W","W","W",null,"W","W","W",null,"W","W","W","W","W","W",null,"W","W","W",null,"W","W","W","W","W","W",null,"W","W","W","W","W",null,"W","W","W","W","W","W","W","W","W","W"],["W","W","W","W","W","W","W","W","W","W","W","W","W","W","W","W","W","W","W","W","W",null,"W","W","W","W","W","W","W","W","W","W"],["W","W","W","W","W","W",null,"W","W","W","W","W","W",null,"W","W","W","W","W","W",null,"W","W","W","W","W","W",null,"W"]],"timingvisible":false,"tabcounter":30,"stave":3,"totalstaves":4,"instrument":"6guitar","selectedtuning":"6_standard","version":"13"}

Member for

3 months 2 weeks
Submitted by pakistan on Thu, 2020-12-03 19:39