Original Blues/Jazz Lick

01234567891011121314151617181920212223
E
B
G
D
A
E
B
0 1 2 3 4 5 6 7 8 9 10 11 12 13 14 15 16 17 18 19 20 21 22 23
(/) Slide Up  (\) Slide Down  (h) Hammer On  (p) Pull Off  (b) Bend (r) Release (v) Vibrato

Stave 1:

E|------------------------------------------------------------------------
B|------------------------------------------------------------------------
G|----------------------------7--9/11v--9-----9--7-----------7--9/11v--9--
D|----------------------7--9------------------------9--7--9---------------
A|---------7------7--9----------------------------------------------------
E|--7--10-----10----------------------------------------------------------

Stave 2:

E|---------------------------------------------------------------------------------------------------
B|---------------------------------------------------------------------------------------------------
G|--9--7-----------7--9/11\9--9/11\9--9/11v--------7--9/11v--9-----9--7-----------------7--9/11v--9--
D|--------9--7--9----------------------------7--9------------------------9--7-----7--9---------------
A|-----------------------------------------------------------------------------9---------------------
E|---------------------------------------------------------------------------------------------------

Stave 3:

E|------------------------------------------------------------------------------------------------
B|------------------------------------------------------------------------------------------------
G|-----9--7-----------7--9/11v--9-----9--7-----------7--9/11\9--9/11\9--9/11v--------7--9/11v--9--
D|-----------9--7--9------------------------9--7--9----------------------------7--9---------------
A|------------------------------------------------------------------------------------------------
E|------------------------------------------------------------------------------------------------

Stave 4:

E|-------------------------------
B|-------------------------------
G|-----9--7----------------------
D|-----------9--7----------------
A|-----------------9--7----------
E|-----------------------10--7v--

							http://www.guitartabcreator.com
Chords

Instruments
{"strings":[[[".",".",".",".",".",".",".",".",".",".",".",".",".",".","_",".",".",".",".",".",".",".",".",".",".","."],[".",".",".",".",".",".",".",".",".",".",".",".",".",".","_",".",".",".",".",".",".",".",".",".",".","."],[".",".",".",".",".",".",".",".",7,9,"/",11,"v",9,"_",9,7,".",".",".",7,9,"/",11,"v",9],[".",".",".",".",".",".",7,9,".",".",".",".",".",".","_",".",".",9,7,9,".",".",".",".",".","."],[".",".",7,".",7,9,".",".",".",".",".",".",".",".","_",".",".",".",".",".",".",".",".",".",".","."],[7,10,".",10,".",".",".",".",".",".",".",".",".",".","_",".",".",".",".",".",".",".",".",".",".","."]],[[".",".",".",".",".",".",".",".",".",".",".",".",".",".",".",".",".",".",".",".",".",".",".",".",".",".",".",".","_",".",".",".",".",".",".",".",".",".",".",".",".","."],[".",".",".",".",".",".",".",".",".",".",".",".",".",".",".",".",".",".",".",".",".",".",".",".",".",".",".",".","_",".",".",".",".",".",".",".",".",".",".",".",".","."],[9,7,".",".",".",7,9,"/",11,"\\",9,9,"/",11,"\\",9,9,"/",11,"v",".",".",7,9,"/",11,"v",9,"_",9,7,".",".",".",".",".",7,9,"/",11,"v",9],[".",".",9,7,9,".",".",".",".",".",".",".",".",".",".",".",".",".",".",".",7,9,".",".",".",".",".",".","_",".",".",9,7,".",7,9,".",".",".",".",".","."],[".",".",".",".",".",".",".",".",".",".",".",".",".",".",".",".",".",".",".",".",".",".",".",".",".",".",".",".","_",".",".",".",".",9,".",".",".",".",".",".",".","."],[".",".",".",".",".",".",".",".",".",".",".",".",".",".",".",".",".",".",".",".",".",".",".",".",".",".",".",".","_",".",".",".",".",".",".",".",".",".",".",".",".","."]],[["_",".",".",".",".",".",".",".",".",".",".",".","_",".",".",".",".",".",".",".",".",".",".",".",".",".",".",".",".",".",".",".",".",".",".",".",".",".",".",".","."],["_",".",".",".",".",".",".",".",".",".",".",".","_",".",".",".",".",".",".",".",".",".",".",".",".",".",".",".",".",".",".",".",".",".",".",".",".",".",".",".","."],["_",9,7,".",".",".",7,9,"/",11,"v",9,"_",9,7,".",".",".",7,9,"/",11,"\\",9,9,"/",11,"\\",9,9,"/",11,"v",".",".",7,9,"/",11,"v",9],["_",".",".",9,7,9,".",".",".",".",".",".","_",".",".",9,7,9,".",".",".",".",".",".",".",".",".",".",".",".",".",".",".",7,9,".",".",".",".",".","."],["_",".",".",".",".",".",".",".",".",".",".",".","_",".",".",".",".",".",".",".",".",".",".",".",".",".",".",".",".",".",".",".",".",".",".",".",".",".",".",".","."],["_",".",".",".",".",".",".",".",".",".",".",".","_",".",".",".",".",".",".",".",".",".",".",".",".",".",".",".",".",".",".",".",".",".",".",".",".",".",".",".","."]],[["_",".",".",".",".",".",".",".",".","."],["_",".",".",".",".",".",".",".",".","."],["_",9,7,".",".",".",".",".",".","."],["_",".",".",9,7,".",".",".",".","."],["_",".",".",".",".",9,7,".",".","."],["_",".",".",".",".",".",".",10,7,"v"]]],"numberofstrings":6,"notes":["E","B","G","D","A","E","B"],"capo":0,"stringnotes":["E4","B3","G3","D3","A2","E2"],"comments":["Stave 1:","Stave 2:","Stave 3:","Stave 4:"],"timing":[["W","W","W","W","W","W","W","W","W","W",null,"W",null,"W",null,"W","W","W","W","W","W","W",null,"W",null,"W"],["W","W","W","W","W","W","W",null,"W","W","W","W",null,"W",null,"W","W",null,"W",null,"W","W","W","W",null,"W",null,"W",null,"W","W","W","W","W","W","W","W","W",null,"W",null,"W"],[null,"W","W","W","W","W","W","W",null,"W",null,"W",null,"W","W","W","W","W","W","W",null,"W",null,"W","W",null,"W",null,"W","W",null,"W",null,"W","W","W","W",null,"W",null,"W"],[null,"W","W","W","W","W","W","W","W"]],"timingvisible":false,"tabcounter":10,"stave":3,"totalstaves":4,"instrument":"6guitar","selectedtuning":"6_standard","version":"13"}

Member for

4 months 4 weeks
Submitted by pakistan on Tue, 2020-10-06 20:04