Deck the Halls

01234567891011121314151617181920212223
E
B
G
D
A
E
B
0 1 2 3 4 5 6 7 8 9 10 11 12 13 14 15 16 17 18 19 20 21 22 23
(/) Slide Up  (\) Slide Down  (h) Hammer On  (p) Pull Off  (b) Bend (r) Release (v) Vibrato

Stave 1:

E|-------------------------------------------------------------------------------------------------------------
B|-------------------------------------------------------------------------------------------------------------
G|-------------------------------------------------------------------------------------------------------------
D|--5------------------------------------------------------5---------------------------------------------------
A|-----8--7--5--3--5--7--3--5--7--8--5--7--5--3--2--3v--------8--7--5--3--5--7--3--5--7--8--5--7--5--3--2--3v--
E|-------------------------------------------------------------------------------------------------------------

Stave 2:

E|---------------------------------------------------------------------------------------------------------------
B|---------------------------------------------------------------------------------------------------------------
G|---------------------------------------------------------------------------------------------------------------
D|--------------------5-----2--4--5--7--9--10--9--7--5-----5-----------------------5/7--7--7--7--5---------------
A|--5--7--8--5--7--8-----5------------------------------------8--7--5--3--5--7--3-------------------8--7--5--3v--
E|---------------------------------------------------------------------------------------------------------------

							http://www.guitartabcreator.com
Chords

Tab Notes
pick slide or regular slide in beginning, LAST NOTE (C, 3rd on a) is a POWER CHORD
Instruments
{"strings":[[[".",".",".",".",".",".",".",".",".",".",".",".",".",".",".",".",".",".","_",".",".",".",".",".",".",".",".",".",".",".",".",".",".",".",".",".","."],[".",".",".",".",".",".",".",".",".",".",".",".",".",".",".",".",".",".","_",".",".",".",".",".",".",".",".",".",".",".",".",".",".",".",".",".","."],[".",".",".",".",".",".",".",".",".",".",".",".",".",".",".",".",".",".","_",".",".",".",".",".",".",".",".",".",".",".",".",".",".",".",".",".","."],[5,".",".",".",".",".",".",".",".",".",".",".",".",".",".",".",".",".","_",5,".",".",".",".",".",".",".",".",".",".",".",".",".",".",".",".","."],[".",8,7,5,3,5,7,3,5,7,8,5,7,5,3,2,3,"v","_",".",8,7,5,3,5,7,3,5,7,8,5,7,5,3,2,3,"v"],[".",".",".",".",".",".",".",".",".",".",".",".",".",".",".",".",".",".","_",".",".",".",".",".",".",".",".",".",".",".",".",".",".",".",".",".","."]],[[".",".",".",".",".",".",".",".",".",".",".",".",".",".",".",".",".","_",".",".",".",".",".",".",".",".",".",".",".",".",".",".",".",".",".",".",".","."],[".",".",".",".",".",".",".",".",".",".",".",".",".",".",".",".",".","_",".",".",".",".",".",".",".",".",".",".",".",".",".",".",".",".",".",".",".","."],[".",".",".",".",".",".",".",".",".",".",".",".",".",".",".",".",".","_",".",".",".",".",".",".",".",".",".",".",".",".",".",".",".",".",".",".",".","."],[".",".",".",".",".",".",5,".",2,4,5,7,9,10,9,7,5,"_",5,".",".",".",".",".",".",".",5,"/",7,7,7,7,5,".",".",".",".","."],[5,7,8,5,7,8,".",5,".",".",".",".",".",".",".",".",".","_",".",8,7,5,3,5,7,3,".",".",".",".",".",".",".",8,7,5,3,"v"],[".",".",".",".",".",".",".",".",".",".",".",".",".",".",".",".",".","_",".",".",".",".",".",".",".",".",".",".",".",".",".",".",".",".",".",".",".","."]]],"numberofstrings":6,"notes":["E","B","G","D","A","E","B"],"capo":0,"stringnotes":["E4","B3","G3","D3","A2","E2"],"comments":["Stave 1:","Stave 2:"],"timing":[["W","W","W","W","W","W","W","W","W","W","W","W","W","W","W","W","W",null,null,"W","W","W","W","W","W","W","W","W","W","W","W","W","W","W","W","W"],["W","W","W","W","W","W","W","W","W","W","W","W","W","W","W","W","W",null,"W","W","W","W","W","W","W","W","W","W","W","W","W","W","W","W","W","W","W"]],"timingvisible":false,"tabcounter":38,"stave":1,"totalstaves":2,"instrument":"6guitar","selectedtuning":"6_standard","version":"13"}

Member for

3 months 2 weeks
Submitted by pakistan on Sun, 2020-11-29 23:26