Skip to main content

Tip Top Polka/The Cliff Polka (Krusty Krab Theme Song) - SpongeBob Squarepants

0 1 2 3 4 5 6 7 8 9 10 11 12 13 14 15 16 17 18 19 20 21 22 23
E
B
G
D
A
E
0 1 2 3 4 5 6 7 8 9 10 11 12 13 14 15 16 17 18 19 20 21 22 23
(/) Slide Up  (\) Slide Down  (h) Hammer On  (p) Pull Off  (b) Bend (r) Release (v) Vibrato

Stave 1:

E|-----10--10--10--10--8--7--7--7--7-----7--7--7--7--7--8--7----------7--8--8--8--8--7--------------------------------------------------
B|------------------------------------------------------------10--10--------------------------------------------------------------------
G|--------------------------------------------------------------------------------------------------------------------------------------
D|--------------------------------------------------------------------------------------------------------------------------------------
A|--------------------------------------------------------------------------------------------------------------------------------------
E|--------------------------------------------------------------------------------------------------------------------------------------

(ignore)

E|--------------------------------------------
B|--------------------------------------------
G|--------------------------------------------
D|--------------------------------------------
A|--------------------------------------------
E|--------------------------------------------

Stave 3:

E|-------------------------------7--8--10--12--14--15--12-----12--14--15--12--12--12--14--15--10--10-----
B|--10--10--10--10--8--7--8--10--------------------------------------------------------------------------
G|-------------------------------------------------------------------------------------------------------
D|-------------------------------------------------------------------------------------------------------
A|-------------------------------------------------------------------------------------------------------
E|-------------------------------------------------------------------------------------------------------

							https://www.guitartabcreator.com
Chords

Tab Notes
This is the theme that played often in the Krusty Krab. Ignore the middle staff, I don't know how to delete it. Tabbed by Paige Byrd
Instruments
{"strings":[[["_",10,10,10,10,8,7,7,7,7,"_",7,7,7,7,7,8,7,"_","_",7,8,8,8,8,7,"_","_","_","_","_","_","_","_","_","_","_","_","_","_","_","_"],["_","_","_","_","_","_","_","_","_","_","_","_","_","_","_","_","_","_",10,10,"_","_","_","_","_","_","_","_","_","_","_","_","_","_","_","_","_","_","_","_","_","_"],["_","_","_","_","_","_","_","_","_","_","_","_","_","_","_","_","_","_","_","_","_","_","_","_","_","_","_","_","_","_","_","_","_","_","_","_","_","_","_","_","_","_"],["_","_","_","_","_","_","_","_","_","_","_","_","_","_","_","_","_","_","_","_","_","_","_","_","_","_","_","_","_","_","_","_","_","_","_","_","_","_","_","_","_","_"],["_","_","_","_","_","_","_","_","_","_","_","_","_","_","_","_","_","_","_","_","_","_","_","_","_","_","_","_","_","_","_","_","_","_","_","_","_","_","_","_","_","_"],["_","_","_","_","_","_","_","_","_","_","_","_","_","_","_","_","_","_","_","_","_","_","_","_","_","_","_","_","_","_","_","_","_","_","_","_","_","_","_","_","_","_"]],[["_","_","_","_","_","_","_","_","_","_","_","_","_","_"],["_","_","_","_","_","_","_","_","_","_","_","_","_","_"],["_","_","_","_","_","_","_","_","_","_","_","_","_","_"],["_","_","_","_","_","_","_","_","_","_","_","_","_","_"],["_","_","_","_","_","_","_","_","_","_","_","_","_","_"],["_","_","_","_","_","_","_","_","_","_","_","_","_","_"]],[[".","_","_","_","_","_","_","_",7,8,10,12,14,15,12,"_",12,14,15,12,12,12,14,15,10,10,"_"],[10,10,10,10,8,7,8,10,"_","_","_","_","_","_","_","_","_","_","_","_","_","_","_","_","_","_","_"],[".","_","_","_","_","_","_","_","_","_","_","_","_","_","_","_","_","_","_","_","_","_","_","_","_","_","_"],[".","_","_","_","_","_","_","_","_","_","_","_","_","_","_","_","_","_","_","_","_","_","_","_","_","_","_"],[".","_","_","_","_","_","_","_","_","_","_","_","_","_","_","_","_","_","_","_","_","_","_","_","_","_","_"],[".","_","_","_","_","_","_","_","_","_","_","_","_","_","_","_","_","_","_","_","_","_","_","_","_","_","_"]]],"numberofstrings":6,"notes":["E","B","G","D","A","E","B"],"capo":0,"stringnotes":["E4","B3","G3","D3","A2","E2"],"comments":["Stave 1:","(ignore)","Stave 3:"],"timing":[["W","W","W","W","W","W","W","W","W","W","W","W","W","W","W","W","W","W","W","W","W","W","W","W","W","W","W","W","W","W","W","W","W","W","W","W","W","W","W","W","W","W"],["W","W","W","W","W","W","W","W","W","W","W","W","W","W"],["W","W","W","W","W","W","W","W","W","W","W","W","W","W","W","W","W","W","W","W","W","W","W","W","W","W","W"]],"timingvisible":false,"tabcounter":27,"stave":0,"totalstaves":3,"instrument":"6guitar","selectedtuning":"6_standard","version":"13"}
Submitted by paigebyrdmusic on