Skip to main content

SpongeBob Squarepants - "Grass Skirt Chase" pt. 2

0 1 2 3 4 5 6 7 8 9 10 11 12 13 14 15 16 17 18 19 20 21 22 23
E
B
G
D
A
E
0 1 2 3 4 5 6 7 8 9 10 11 12 13 14 15 16 17 18 19 20 21 22 23
(/) Slide Up  (\) Slide Down  (h) Hammer On  (p) Pull Off  (b) Bend (r) Release (v) Vibrato

Stave 1:

E|------------------------------------------------------------------------------------------------------------------
B|-----10--8-------------------------------------------11--10--10--11------11--10------10--8--8---------------------
G|------------10--9--10--9--7--9--0h10--9--0h7--9--10------------------12----------10------------10--9--7--6--5-----
D|------------------------------------------------------------------------------------------------------------------
A|------------------------------------------------------------------------------------------------------------------
E|------------------------------------------------------------------------------------------------------------------

Stave 2:

E|---------------10-------------------------------------------------------------------------------------
B|----------/11----/10----------------------------------11--10--10--11------11--10------10--8--6--5-----
G|--9--10---/12----/10-----0h7--9--0h10--9--0h7--9--10------------------12----------10------------------
D|------------------------------------------------------------------------------------------------------
A|------------------------------------------------------------------------------------------------------
E|------------------------------------------------------------------------------------------------------

Stave 3:

E|----------------------------------------------------------
B|--------6/---9------12/---9---6--10-----3-----------------
G|--------7/---10-----13/---10--7--9------2-----------------
D|----------------------------------------------------------
A|----------------------------------------------------------
E|----------------------------------------------------------

							https://www.guitartabcreator.com
Chords

Tab Notes
this is the 2nd part to the first tab I did.
Instruments
{"strings":[[["_","_","_","_","_","_","_","_","_","_","_","_","_","_","_","_","_","_","_","_","_","_","_","_","_","_","_","_","_","_","_","_","_","_","_"],["_",10,8,"_","_","_","_","_","_","_","_","_","_","_","_","_","_","_",11,10,10,11,"_",11,10,"_",10,8,8,"_","_","_","_","_","_"],["_","_","_",10,9,10,9,7,9,0,"h",10,9,0,"h",7,9,10,"_","_","_","_",12,"_","_",10,"_","_","_",10,9,7,6,5,"_"],["_","_","_","_","_","_","_","_","_","_","_","_","_","_","_","_","_","_","_","_","_","_","_","_","_","_","_","_","_","_","_","_","_","_","_"],["_","_","_","_","_","_","_","_","_","_","_","_","_","_","_","_","_","_","_","_","_","_","_","_","_","_","_","_","_","_","_","_","_","_","_"],["_","_","_","_","_","_","_","_","_","_","_","_","_","_","_","_","_","_","_","_","_","_","_","_","_","_","_","_","_","_","_","_","_","_","_"]],[["_","_","_","_","_",10,"_","_","_","_","_","_","_","_","_","_","_","_","_","_","_","_","_","_","_","_","_","_","_","_","_","_","_","_","_"],["_","_","_","/",11,"_","/",10,"_","_","_","_","_","_","_","_","_","_","_","_","_","_",11,10,10,11,"_",11,10,"_",10,8,6,5,"_"],[9,10,"_","/",12,"_","/",10,"_",0,"h",7,9,0,"h",10,9,0,"h",7,9,10,"_","_","_","_",12,"_","_",10,"_","_","_","_","_"],["_","_","_","_","_","_","_","_","_","_","_","_","_","_","_","_","_","_","_","_","_","_","_","_","_","_","_","_","_","_","_","_","_","_","_"],["_","_","_","_","_","_","_","_","_","_","_","_","_","_","_","_","_","_","_","_","_","_","_","_","_","_","_","_","_","_","_","_","_","_","_"],["_","_","_","_","_","_","_","_","_","_","_","_","_","_","_","_","_","_","_","_","_","_","_","_","_","_","_","_","_","_","_","_","_","_","_"]],[[".","_","_","_","_","_","_","_","_","_","_","_","_","_","_","_","_","_","_","_"],[".","_",6,"/","_",9,"_",12,"/","_",9,6,10,"_",3,"_","_","_","_","_"],[".","_",7,"/","_",10,"_",13,"/","_",10,7,9,"_",2,"_","_","_","_","_"],[".","_","_","_","_","_","_","_","_","_","_","_","_","_","_","_","_","_","_","_"],[".","_","_","_","_","_","_","_","_","_","_","_","_","_","_","_","_","_","_","_"],[".","_","_","_","_","_","_","_","_","_","_","_","_","_","_","_","_","_","_","_"]]],"numberofstrings":6,"notes":["E","B","G","D","A","E","B"],"capo":0,"stringnotes":["E4","B3","G3","D3","A2","E2"],"comments":["Stave 1:","Stave 2:","Stave 3:"],"timing":[["Q","Q","Q","Q","Q","Q","Q","Q","Q","Q","Q","Q","Q","Q","Q","Q","Q","Q","Q","Q","Q","Q","Q","Q","Q","Q","Q","Q","Q","Q","Q","Q","Q","Q","Q"],["Q","Q","Q","Q","Q","Q","Q","Q","Q","Q","Q","Q","Q","Q","Q","Q","Q","Q","Q","Q","Q","Q","Q","Q","Q","Q","Q","Q","Q","Q","Q","Q","Q","Q","Q"],["Q","Q","Q","Q","Q","Q","Q","Q","Q","Q","Q","Q","Q","Q","Q","Q","Q","Q","Q","Q"]],"timingvisible":false,"tabcounter":20,"stave":2,"totalstaves":3,"instrument":"6guitar","selectedtuning":"6_standard","version":"13"}
Submitted by paigebyrdmusic on