Sound will begin in 5 seconds

Sunrise

01234567891011121314151617181920212223
E
B
G
D
A
E
B
0 1 2 3 4 5 6 7 8 9 10 11 12 13 14 15 16 17 18 19 20 21 22 23
Song Science #1: How Pros Use 6 Chords to Write Hit Songs
(/) Slide Up  (\) Slide Down  (h) Hammer On  (p) Pull Off  (b) Bend (r) Release (v) Vibrato

Stave 1:

G|-----14-----12-----11-----7--7h9p7--
D|------------------------------------
A|------------------------------------
E|--0------0------0------0------------

Stave 2:

G|--------7--------5------------------
D|-----5--------5-----------7---------
A|--5--------5--------5--7-----5h7p5--
E|------------------------------------

Stave 3:

G|--7-----7--7--7--5--5----------------------
D|-----------------------------4--5-----5h7--
A|-----------------------7--7----------------
E|-------------------------------------------

Stave 4:

G|-----------------------------------------------
D|-----------5-----------7-----------7-----------
A|--5--7--8-----8--7--5-----5--7--8-----8--7--5--
E|-----------------------------------------------

Stave 5:

G|-----5-----------4--------------------------
D|--------4-----5-----7-----7-----------6-----
A|--5--------5-----------7-----7--6--7-----7--
E|--------------------------------------------

Stave 6:

G|-----------------------------------------------7--
D|-----------5-----------7-----------5--------------
A|--5--7--8-----8--7--5-----5--7--8-----8--7--5-----
E|--------------------------------------------------

http://www.guitartabcreator.com
Guitar Tab Creator is intended to store guitar tab created through the tool. It currently does not support in-line text editing. Any text you place in here will be lost. If you need to comment on your tab, please use the "Tab Notes" section located below.