Sound will begin in 5 seconds

Cello Suite No 1 - Prelude

01234567891011121314151617181920212223
E
B
G
D
A
E
B
0 1 2 3 4 5 6 7 8 9 10 11 12 13 14 15 16 17 18 19 20 21 22 23
Song Science #1: How Pros Use 6 Chords to Write Hit Songs
(/) Slide Up  (\) Slide Down  (h) Hammer On  (p) Pull Off  (b) Bend (r) Release (v) Vibrato

Stave 1:

E|---------------------------------|---------------------------------|-
B|---------------------------------|---------------------------------|-
G|-----4---4---4-------4---4---4---|-----5-4-5---5-------5-4-5---5---|-
D|-------7---------------7---------|---2-------2---2---2-------2---2-|-
A|---5-------5---5---5-------5---5-|---------------------------------|-
E|-3---------------3---------------|-3---------------3---------------|-

Stave 2:

E|---------------------------------|---------------------------------|-
B|---------------------------------|---------------------------------|-
G|-----5-4-5---5-------5-4-5---5---|-----2---4---4-------2---4---4---|-
D|---4-------4---4---4-------4---4-|---5---5---5---5---5---5---5---5-|-
A|---------------------------------|---------------------------------|-
E|-3---------------3---------------|-3---------------3---------------|-

Stave 3:

E|---------------------------------|---------------------------------|-
B|---------------------------------|---------------------------------|-
G|-----4-2-4-----------------------|-----2-0-2-0-2-------2-0-2-0-2---|-
D|---2-------5-4-5-2-5-4-5---------|---5-----------5---5-----------5-|-
A|-------------------------2-5-4-2-|-4---------------4---------------|-
E|-3-------------------------------|---------------------------------|-

Stave 4:

E|---------------------------------|---------------------------------|-
B|-----3-2-3-----------------------|---------------------------------|-
G|---2-------2-0-2---2-0-2---------|---------------------------------|-
D|-4---------------4-------0-4-2---|-----5-4-5---5-------5-4-5---5---|-
A|-------------------------------5-|---2-------2---2---2-------2---2-|-
E|---------------------------------|-0---------------0---------------|-

Stave 5:

E|---------------------------------|---------------------------------|-
B|-----------------------3-2-------|-------3---3---------------------|-
G|-----------------0---------4-2---|---------2-----2-------2---------|-
D|-------------------4-2---------5-|-4-2---------4---0-2-4---5-4-2-0-|-
A|---4-5-7-5-4---------------------|-----5---------------------------|-
E|-0-----------7-5-----------------|---------------------------------|-

Stave 6:

E|---------------------------------|---------------------------------|-
B|---------------------------------|-------0-1-------------0-1-------|-
G|---------------------------------|-----2-----2---------2-----2-----|-
D|-6-0-3-2-3-0-6-0-6-0-3-2-3-0-6-0-|---2---------2-0---2---------4-2-|-
A|---------------------------------|-3---------------3---------------|-
E|---------------------------------|---------------------------------|-

Stave 7:

E|---------------------------------|---------------------------------|-
B|---------------------------------|---------------------------------|-
G|---------2---2-----------2---2---|-----------0-2-------------------|-
D|-1-4-1-4---4---4-1-4-1-4---4---4-|-5-4-2-5-4-----4-5-4-2-----------|-
A|---------------------------------|-----------------------5-3-2-----|-
E|---------------------------------|-----------------------------5-3-|-

Stave 8:

E|---------------------------------|---------------------------------|-
B|---------------------------------|---------------------------------|-
G|---------------------------------|---------------------------------|-
D|-----0---0---0-------0---0---0---|-----3-2-3---3-------3-2-3---3---|-
A|---3---3---3---3---3---3---3---3-|---2-------2---2---2-------2---2-|-
E|-2---------------2---------------|-3---------------3---------------|-

Stave 9:

E|---------------------------------|---------------------------------|-
B|---------------------------------|---------------------------------|-
G|---------------------------------|-----5-4-5---5-------5-4-5---5---|-
D|-----2-0-2---2-------2-0-2---2---|---4-------4---4---4-------4---4-|-
A|---3-------3---3---3-------3---3-|---------------------------------|-
E|-3---------------3---------------|-3---------------3---------------|-

Stave 10:

E|---------------------------------|---------------------------------|-
B|---------------------------------|---------------------------------|-
G|-----4-2-4-----------------------|---------------------------------|-
D|---4-------5-4-2-----------------|-------4-5---4-5-------4-5---4-5-|-
A|-----------------5-3-2---------5-|-6---7-----7-----6---7-----7-----|-
E|-3---------------------5-3-2-0---|---5---------------5-------------|-

Stave 11:

E|---------------------------------|---------------
B|---------------------------------|---------0-2-3-
G|---------------------------------|---------------
D|---------4-----4---------4-----4-|-------4-------
A|-7-0-5-7---5-7---7-0-5-7---5-7---|-7-0-5---------
E|---------------------------------|---------------

http://www.guitartabcreator.com
Guitar Tab Creator is intended to store guitar tab created through the tool. It currently does not support in-line text editing. Any text you place in here will be lost. If you need to comment on your tab, please use the "Tab Notes" section located below.