Without You - Avicii

Chords

01234567891011121314151617181920212223
E
B
G
D
A
E
B
0 1 2 3 4 5 6 7 8 9 10 11 12 13 14 15 16 17 18 19 20 21 22 23
(/) Slide Up  (\) Slide Down  (h) Hammer On  (p) Pull Off  (b) Bend (r) Release (v) Vibrato

Intro Riff

E|-------------------------------------|--------------------------------|-------------------------------------|--------------------------------
B|-------------------------------------|--------------------------------|-------------------------------------|--------------------------------
G|-------------------------------------|--------------------------------|-------------------------------------|--------------------------------
D|-------------------------------------|--------------------------------|-------------------------------------|--------------------------------
A|-------------------------------------|--------------------------------|-------------------------------------|--------------------------------
E|-----10--12--14--10--14--15--15--14--|--10--12--14--10--10--9--9--10--|--10--12--14--10--14--15h17--15--14--|--10--12--14--10--10--9--9--10--

Post Chorus Riff

E|------------------------------------------------------------------------------|----------------------------------------------------------------
B|-------------------------------------------------10--10-----------------------|--------------------------------------------------10--10--------
G|--------------------------------------9--11--11----------------11--9----------|-----------------------------------9--11--11--11----------------
D|--------9--11--11--12--12--9--11--12---------------------9--9---------12--11--|--9--9--11--11--12--12--9--11--12-------------------------9--9--
A|------------------------------------------------------------------------------|----------------------------------------------------------------
E|------------------------------------------------------------------------------|----------------------------------------------------------------

							http://www.guitartabcreator.com
Instruments
{"strings":[[[".",".",".",".",".",".",".",".",".","|",".",".",".",".",".",".",".",".","|",".",".",".",".",".",".",".",".",".",".","|",".",".",".",".",".",".",".","."],[".",".",".",".",".",".",".",".",".","|",".",".",".",".",".",".",".",".","|",".",".",".",".",".",".",".",".",".",".","|",".",".",".",".",".",".",".","."],[".",".",".",".",".",".",".",".",".","|",".",".",".",".",".",".",".",".","|",".",".",".",".",".",".",".",".",".",".","|",".",".",".",".",".",".",".","."],[".",".",".",".",".",".",".",".",".","|",".",".",".",".",".",".",".",".","|",".",".",".",".",".",".",".",".",".",".","|",".",".",".",".",".",".",".","."],[".",".",".",".",".",".",".",".",".","|",".",".",".",".",".",".",".",".","|",".",".",".",".",".",".",".",".",".",".","|",".",".",".",".",".",".",".","."],[".",10,12,14,10,14,15,15,14,"|",10,12,14,10,10,9,9,10,"|",10,12,14,10,14,15,"h",17,15,14,"|",10,12,14,10,10,9,9,10]],[[".",".",".",".",".",".",".",".",".",".",".",".",".",".",".",".",".",".",".",".",".","|",".",".",".",".",".",".",".",".",".",".",".",".",".",".",".",".","."],[".",".",".",".",".",".",".",".",".",".",".",".",".",10,10,".",".",".",".",".",".","|",".",".",".",".",".",".",".",".",".",".",".",".",".",10,10,".","."],[".",".",".",".",".",".",".",".",".",".",9,11,11,".",".",".",".",11,9,".",".","|",".",".",".",".",".",".",".",".",".",9,11,11,11,".",".",".","."],[".",".",9,11,11,12,12,9,11,12,".",".",".",".",".",9,9,".",".",12,11,"|",9,9,11,11,12,12,9,11,12,".",".",".",".",".",".",9,9],[".",".",".",".",".",".",".",".",".",".",".",".",".",".",".",".",".",".",".",".",".","|",".",".",".",".",".",".",".",".",".",".",".",".",".",".",".",".","."],[".",".",".",".",".",".",".",".",".",".",".",".",".",".",".",".",".",".",".",".",".","|",".",".",".",".",".",".",".",".",".",".",".",".",".",".",".",".","."]]],"numberofstrings":6,"notes":["E","B","G","D","A","E","B"],"capo":0,"stringnotes":["E4","B3","G3","D3","A2","E2"],"comments":["Intro Riff","Post Chorus Riff"],"timing":[[null,null,null,null,null,null,null,null,null,"W","W","W","W","W","W","W","W",null,"W","W","W","W","W","W","W","W","W","W","W","W","W","W","W","W","W","W","W","W",null,null,"W"],["Q","Q","Q","Q","Q","Q","Q","Q","Q","Q","Q","Q","Q","Q","Q","Q","Q","Q","Q","Q",null,"Q","Q","Q","Q","Q","Q","Q","Q","Q","Q","Q","Q","Q","Q","Q","Q","Q","Q","Q"]],"timingvisible":false,"tabcounter":38,"stave":0,"totalstaves":2,"instrument":"6guitar","selectedtuning":"6_standard","version":"13"}

Member for

1 month 1 week
Submitted by oscarcbrn on Mon, 2020-10-26 14:08