Cartola - As Rosas não Falam

Chords

01234567891011121314151617181920212223
E
B
G
D
A
E
B
0 1 2 3 4 5 6 7 8 9 10 11 12 13 14 15 16 17 18 19 20 21 22 23
(/) Slide Up  (\) Slide Down  (h) Hammer On  (p) Pull Off  (b) Bend (r) Release (v) Vibrato

Stave 1:

E|-----1--1-----------------1--1-----1--1-----3--3-----------------3--3--
B|-----3--3-----------------3--3-----3--3-----3--3-----------------3--3--
G|-----2--2--2--------------2--2-----2--2-----3--3-----------------3--3--
D|--1-----------3--0--------------------------------0--------------------
A|--------------------4--3--------3--------------------3--1--0-----------
E|-----------------------------------------3--------------------3--------

Stave 2:

E|-----------------0--0-----------------0--0-----0--0-----1--1-----------
B|-----------------3--3-----------------3--3-----2--2-----3--3-----------
G|-----------------4--4-----------------0--0-----0--0-----2--2-----------
D|--------------------------------0--------------------0-----------------
A|-----------------------------2-----4--------0--------------------------
E|--0--1--2--3--4--------0--4--------------------------------------------

Stave 3:

E|-----------------------------------------0--------------------1--------
B|-----------------------------------------3--------------------3--------
G|--3--2--0-----------------------------2--2-----------------2--2--------
D|-----------3--2--0--------------------------------0--2--3--------------
A|--------------------4--0-----------------------0-----------------------
E|--------------------------4--3--2--1--------1--------------------------

Stave 4:

E|-----------------------------------------------------------------------
B|--------3--------------------------------------------------------------
G|-----1-----------------------------------------------------------------
D|--------------------2--1--0--------------------------------------------
A|-----------------2-----------------------------------------------------
E|--0--------0--4--------------------------------------------------------

Stave 5:

E|-----------------------------------------------------------------------
B|-----------------------------------------------------------------------
G|-----------------------------------------------------------------------
D|-----------------------------------------------------------------------
A|-----------------------------------------------------------------------
E|-----------------------------------------------------------------------

Stave 6:

E|-----------------------------------------------------------------------
B|-----------------------------------------------------------------------
G|-----------------------------------------------------------------------
D|-----------------------------------------------------------------------
A|-----------------------------------------------------------------------
E|-----------------------------------------------------------------------

Stave 7:

E|-----------------------------------------------------------------------
B|--6-----5--6-----5--6--5--------------5--5--6--8--6--5--5--------6--5--
G|-----7--------7-----------7--7-----3--------------------------4--------
D|--------------------------------5--------------------------6-----------
A|-----------------------------------------------------------------------
E|-----------------------------------------------------------------------

Stave 8:

E|-----5--------5--------5--------4--------4--------4--------3-----------
B|--------6--8-----6--8-----8--6-----5--7-----5--7-----7--5--------------
G|-----------------------------------------------------------------------
D|--7--------------------------------------------------------------------
A|-----------------------------------------------------------------------
E|-----------------------------------------------------------------------

Stave 9:

E|-----------------------------------------------------------------------
B|-----------------------------------------------------------------------
G|-----------------------------------------------------------------------
D|-----------------------------------------------------------------------
A|-----------------------------------------------------------------------
E|-----------------------------------------------------------------------

							http://www.guitartabcreator.com
Instruments
{"strings":[[[".",1,1,".",".",".",".",".",1,1,".",1,1,".",3,3,".",".",".",".",".",3,3],[".",3,3,".",".",".",".",".",3,3,".",3,3,".",3,3,".",".",".",".",".",3,3],[".",2,2,2,".",".",".",".",2,2,".",2,2,".",3,3,".",".",".",".",".",3,3],[1,".",".",".",3,0,".",".",".",".",".",".",".",".",".",".",0,".",".",".",".",".","."],[".",".",".",".",".",".",4,3,".",".",3,".",".",".",".",".",".",3,1,0,".",".","."],[".",".",".",".",".",".",".",".",".",".",".",".",".",3,".",".",".",".",".",".",3,".","."]],[[".",".",".",".",".",0,0,".",".",".",".",".",0,0,".",0,0,".",1,1,"_","_","_"],[".",".",".",".",".",3,3,".",".",".",".",".",3,3,".",2,2,".",3,3,"_","_","_"],[".",".",".",".",".",4,4,".",".",".",".",".",0,0,".",0,0,".",2,2,"_","_","_"],[".",".",".",".",".",".",".",".",".",".",0,".",".",".",".",".",".",0,".",".","_","_","_"],[".",".",".",".",".",".",".",".",".",2,".",4,".",".",0,".",".",".",".",".","_","_","_"],[0,1,2,3,4,".",".",0,4,".",".",".",".",".",".",".",".",".",".",".","_","_","_"]],[[".",".",".",".",".",".",".",".",".",".",".",".",".",0,".",".",".",".",".",".",1,"_","_"],[".",".",".",".",".",".",".",".",".",".",".",".",".",3,".",".",".",".",".",".",3,"_","_"],[3,2,0,".",".",".",".",".",".",".",".",".",2,2,".",".",".",".",".",2,2,"_","_"],[".",".",".",3,2,0,".",".",".",".",".",".",".",".",".",".",0,2,3,".",".","_","_"],[".",".",".",".",".",".",4,0,".",".",".",".",".",".",".",0,".",".",".",".",".","_","_"],[".",".",".",".",".",".",".",".",4,3,2,1,".",".",1,".",".",".",".",".",".","_","_"]],[[".",".",".",".",".",".",".",".",".","_","_","_","_","_","_","_","_","_","_","_","_","_","_"],[".",".",3,".",".",".",".",".",".","_","_","_","_","_","_","_","_","_","_","_","_","_","_"],[".",1,".",".",".",".",".",".",".","_","_","_","_","_","_","_","_","_","_","_","_","_","_"],[".",".",".",".",".",".",2,1,0,"_","_","_","_","_","_","_","_","_","_","_","_","_","_"],[".",".",".",".",".",2,".",".",".","_","_","_","_","_","_","_","_","_","_","_","_","_","_"],[0,".",".",0,4,".",".",".",".","_","_","_","_","_","_","_","_","_","_","_","_","_","_"]],[["_","_","_","_","_","_","_","_","_","_","_","_","_","_","_","_","_","_","_","_","_","_","_"],["_","_","_","_","_","_","_","_","_","_","_","_","_","_","_","_","_","_","_","_","_","_","_"],["_","_","_","_","_","_","_","_","_","_","_","_","_","_","_","_","_","_","_","_","_","_","_"],["_","_","_","_","_","_","_","_","_","_","_","_","_","_","_","_","_","_","_","_","_","_","_"],["_","_","_","_","_","_","_","_","_","_","_","_","_","_","_","_","_","_","_","_","_","_","_"],["_","_","_","_","_","_","_","_","_","_","_","_","_","_","_","_","_","_","_","_","_","_","_"]],[["_","_","_","_","_","_","_","_","_","_","_","_","_","_","_","_","_","_","_","_","_","_","_"],["_","_","_","_","_","_","_","_","_","_","_","_","_","_","_","_","_","_","_","_","_","_","_"],["_","_","_","_","_","_","_","_","_","_","_","_","_","_","_","_","_","_","_","_","_","_","_"],["_","_","_","_","_","_","_","_","_","_","_","_","_","_","_","_","_","_","_","_","_","_","_"],["_","_","_","_","_","_","_","_","_","_","_","_","_","_","_","_","_","_","_","_","_","_","_"],["_","_","_","_","_","_","_","_","_","_","_","_","_","_","_","_","_","_","_","_","_","_","_"]],[[".",".",".",".",".",".",".",".",".",".",".",".",".",".",".",".",".",".",".",".",".",".","."],[6,".",5,6,".",5,6,5,".",".",".",".",5,5,6,8,6,5,5,".",".",6,5],[".",7,".",".",7,".",".",".",7,7,".",3,".",".",".",".",".",".",".",".",4,".","."],[".",".",".",".",".",".",".",".",".",".",5,".",".",".",".",".",".",".",".",6,".",".","."],[".",".",".",".",".",".",".",".",".",".",".",".",".",".",".",".",".",".",".",".",".",".","."],[".",".",".",".",".",".",".",".",".",".",".",".",".",".",".",".",".",".",".",".",".",".","."]],[[".",5,".",".",5,".",".",5,".",".",4,".",".",4,".",".",4,".",".",3,"_","_","_"],[".",".",6,8,".",6,8,".",8,6,".",5,7,".",5,7,".",7,5,".","_","_","_"],[".",".",".",".",".",".",".",".",".",".",".",".",".",".",".",".",".",".",".",".","_","_","_"],[7,".",".",".",".",".",".",".",".",".",".",".",".",".",".",".",".",".",".",".","_","_","_"],[".",".",".",".",".",".",".",".",".",".",".",".",".",".",".",".",".",".",".",".","_","_","_"],[".",".",".",".",".",".",".",".",".",".",".",".",".",".",".",".",".",".",".",".","_","_","_"]],[["_","_","_","_","_","_","_","_","_","_","_","_","_","_","_","_","_","_","_","_","_","_","_"],["_","_","_","_","_","_","_","_","_","_","_","_","_","_","_","_","_","_","_","_","_","_","_"],["_","_","_","_","_","_","_","_","_","_","_","_","_","_","_","_","_","_","_","_","_","_","_"],["_","_","_","_","_","_","_","_","_","_","_","_","_","_","_","_","_","_","_","_","_","_","_"],["_","_","_","_","_","_","_","_","_","_","_","_","_","_","_","_","_","_","_","_","_","_","_"],["_","_","_","_","_","_","_","_","_","_","_","_","_","_","_","_","_","_","_","_","_","_","_"]]],"numberofstrings":6,"notes":["E","B","G","D","A","E","B"],"capo":0,"stringnotes":["E4","B3","G3","D3","A2","E2"],"comments":["Stave 1:","Stave 2:","Stave 3:","Stave 4:","Stave 5:","Stave 6:","Stave 7:","Stave 8:","Stave 9:"],"timing":[[null,null,null,null,null,null,null,null,null,null,null,null,null,null,null,null,null,null,null,null,null,null,null],[null,null,null,null,null,null,null,null,null,null,null,null,null,null,null,"W","W","W","W","W"],["W","W","W","W","W","W","W","W","W","W","W","W","W","W","W","W","W","W","W","W","W","W"],["W","W","W","W","W","W","W","W","W"],[],[],["W","W","W","W","W","W","W","W","W","W","W","W","W","W","W","W","W","W","W","W","W","W","W"],["W","W","W","W","W","W","W","W","W","W","W","W","W","W","W","W","W","W","W","W"],[]],"timingvisible":false,"tabcounter":23,"stave":8,"totalstaves":9,"instrument":"6guitar","selectedtuning":"6_standard","version":"13"}

Member for

4 days 17 hours
Submitted by Ortegal on Mon, 2021-01-11 16:52