Cavern

Chords

01234567891011121314151617181920212223
E
B
G
D
A
E
B
0 1 2 3 4 5 6 7 8 9 10 11 12 13 14 15 16 17 18 19 20 21 22 23
(/) Slide Up  (\) Slide Down  (h) Hammer On  (p) Pull Off  (b) Bend (r) Release (v) Vibrato

Stave 1:

E|--------------------------------------0-----------------------------------------------5/7p0--7-----------7--5--7-----------------8--7--8--------
B|-----------------------------------------0---------------------------------------------------------5--6-----------5--6-----5--6-----------6--5--
G|--------0-----------0--------0-----0--------0-----------0-----------0--------0-----0------------------------------------------------------------
D|-----2-----2-----3-----3--------2--------------------2-----2-----3-----3--------2---------------------------------------------------------------
A|------------------------------------------------------------------------------------------------------------------------------------------------
E|--0-----------0-----------0-----------------------0-----------0-----------0---------------------0-----------------------0-----------------------

Stave 2:

E|-----------7--5--7-----------12--10--8--7--8--5--7-----------7--5--7-----------------12--10--8--7--8-----12--13--12--10--8--7--8-----------------
B|-----5--6-----------5--6-------------------------------5--6-----------5--6-----5--6--------------------------------------------------5--6--5-----
G|----------------------------------------------------------------------------------------------------------------------------------------------7--
D|-------------------------------------------------------------------------------------------------------------------------------------------------
A|-------------------------------------------------------------------------------------------------------------------------------------------------
E|--0-----------------------0-------------------------0-----------------------0-------------------------0---------------------------0--------------

Stave 3:

E|--------------------------------------------------------------------------------------------------
B|--------------------------------------------------------------------------------------------------
G|--------------------------------------------------------------------------------------------------
D|--5--4--5--9--------------------------------------2--3--2--------------1-----------6--2--3--2--0--
A|-----------7-----------3--7--8--7--8--3--5--3--5-----------1-----------3--7--8--7--8-----------1--
E|--------------0--1--0--3-----------8-----------5-----------1--0--1--0--3-----------8-----------1--

							http://www.guitartabcreator.com
Instruments
{"strings":[[[".",".",".",".",".",".",".",".",".",".",".",".",0,".",".",null,".",".",".",".",".",".",".",".",".",".",".",".",".",5,"/",7,"p",0,7,".",".",".",7,5,7,".",".",".",".",".",8,7,8,".","."],[".",".",".",".",".",".",".",".",".",".",".",".",".",0,".",null,".",".",".",".",".",".",".",".",".",".",".",".",".",".",".",".",".",".",".",".",5,6,".",".",".",5,6,".",5,6,".",".",".",6,5],[".",".",0,".",".",".",0,".",".",0,".",0,".",".",0,null,".",".",".",0,".",".",".",0,".",".",0,".",0,".",".",".",".",".",".",".",".",".",".",".",".",".",".",".",".",".",".",".",".",".","."],[".",2,".",2,".",3,".",3,".",".",2,".",".",".",".",null,".",".",2,".",2,".",3,".",3,".",".",2,".",".",".",".",".",".",".",".",".",".",".",".",".",".",".",".",".",".",".",".",".",".","."],[".",".",".",".",".",".",".",".",".",".",".",".",".",".",".",null,".",".",".",".",".",".",".",".",".",".",".",".",".",".",".",".",".",".",".",".",".",".",".",".",".",".",".",".",".",".",".",".",".",".","."],[0,".",".",".",0,".",".",".",0,".",".",".",".",".",".",null,".",0,".",".",".",0,".",".",".",0,".",".",".",".",".",".",".",".",".",0,".",".",".",".",".",".",".",0,".",".",".",".",".",".","."]],[[".",".",".",7,5,7,".",".",".",12,10,8,7,8,5,7,".",".",".",7,5,7,".",".",".",".",".",12,10,8,7,8,".",12,13,12,10,8,7,8,".",".",".",".","."],[".",5,6,".",".",".",5,6,".",".",".",".",".",".",".",".",".",5,6,".",".",".",5,6,".",5,6,".",".",".",".",".",".",".",".",".",".",".",".",".",".",5,6,5,"."],[".",".",".",".",".",".",".",".",".",".",".",".",".",".",".",".",".",".",".",".",".",".",".",".",".",".",".",".",".",".",".",".",".",".",".",".",".",".",".",".",".",".",".",".",7],[".",".",".",".",".",".",".",".",".",".",".",".",".",".",".",".",".",".",".",".",".",".",".",".",".",".",".",".",".",".",".",".",".",".",".",".",".",".",".",".",".",".",".",".","."],[".",".",".",".",".",".",".",".",".",".",".",".",".",".",".",".",".",".",".",".",".",".",".",".",".",".",".",".",".",".",".",".",".",".",".",".",".",".",".",".",".",".",".",".","."],[0,".",".",".",".",".",".",".",0,".",".",".",".",".",".",".",0,".",".",".",".",".",".",".",0,".",".",".",".",".",".",".",0,".",".",".",".",".",".",".",0,".",".",".","."]],[[".",".",".",".",".",".",".",".",".",".",".",".",".",".",".",".",".",".",".",".",".",".",".",".",".",".",".",".",".",".",".","."],[".",".",".",".",".",".",".",".",".",".",".",".",".",".",".",".",".",".",".",".",".",".",".",".",".",".",".",".",".",".",".","."],[".",".",".",".",".",".",".",".",".",".",".",".",".",".",".",".",".",".",".",".",".",".",".",".",".",".",".",".",".",".",".","."],[5,4,5,9,".",".",".",".",".",".",".",".",".",".",".",".",2,3,2,".",".",".",".",1,".",".",".",6,2,3,2,0],[".",".",".",7,".",".",".",3,7,8,7,8,3,5,3,5,".",".",".",1,".",".",".",3,7,8,7,8,".",".",".",1],[".",".",".",".",0,1,0,3,".",".",".",8,".",".",".",5,".",".",".",1,0,1,0,3,".",".",".",8,".",".",".",1]]],"numberofstrings":6,"notes":["E","B","G","D","A","E","B"],"capo":0,"stringnotes":["E4","B3","G3","D3","A2","E2"],"comments":["Stave 1:","Stave 2:","Stave 3:"],"timing":[[null,null,null,null,null,null,null,null,null,null,"W","W","W","W","W","W",null,"W","W","W","W","W","W","W","W","W","W","W","W","W",null,"W",null,"W","W","W","W","W","W","W","W","W","W","W","W","W","W","W","W","W","W"],["W","W","W","W","W","W","W","W","W","W","W","W","W","W","W","W","W","W","W","W","W","W","W","W","W","W","W","W","W","W","W","W","W","W","W","W","W","W","W","W","W","W","W","W","W"],["W","W","W","W","W","W","W","W","W","W","W","W","W","W","W","W","W","W","W","W","W","W","W","W","W","W","W","W","W","W","W","W"]],"timingvisible":false,"tabcounter":31,"stave":2,"totalstaves":3,"instrument":"6guitar","selectedtuning":"6_standard","version":"13"}

Member for

1 week 4 days
Submitted by OrmHelgrimm on Tue, 2020-06-30 05:27