Sound will begin in 5 seconds

Anthrax - Friggin' In The Riggin'

Chords
01234567891011121314151617181920212223
E
B
G
D
A
E
B
0 1 2 3 4 5 6 7 8 9 10 11 12 13 14 15 16 17 18 19 20 21 22 23
Song Science #1: How Pros Use 6 Chords to Write Hit Songs
(/) Slide Up  (\) Slide Down  (h) Hammer On  (p) Pull Off  (b) Bend (r) Release (v) Vibrato

Stave 1:

E|--------------------------------------
B|--------------------------------------
G|--17--16--17--------------------------
D|--17--16--17----------17--16--15------
A|--------------15--15--17--16--15--15--
E|--------------15--15--------------15--

Stave 2:

E|-----------------------------------------------------------------------------------------
B|-----------------------------------------------------------------------------------------
G|-----------------------------------------------------------------------------------------
D|--------------2--------------------2--------------------2--3--2--------------------------
A|-----3--3--5-----3--------3--3--5-----3--------3--3--5-----------5--3--2--------2--3--3--
E|--3-----------------3--3-----------------3--3-----------------------------3--5-----------

Stave 3:

E|--------------------------
B|--------------------------
G|--5--------5--5--------5--
D|--5--5--3--5--5--3--5--5--
A|--3--5--3--3--3--3--5--3--
E|-----3--1--------1--3-----

Stave 4:

E|-----
B|-----
G|-----
D|--5--
A|--5--
E|--3--

Stave 5:

E|-----------------
B|-----------------
G|-----5--5--5--5--
D|-----5--5--5--5--
A|-----3--3--3--3--
E|-----------------

Stave 6:

E|--------------------------------------------------------------------------------------------------
B|--------------------------------------------------------------5--5--5--5--------------------------
G|--5--5--5--5--5--5--5--5--5--5--5--5--5--5--5--5--5--5--5--5--5--5--5--5--------------5--5--5--5--
D|--5--5--5--5--5--5--5--5--5--5--5--5--5--5--5--5--5--5--5--5--3--3--3--3--5--5--5--5--5--5--5--5--
A|--3--3--3--3--3--3--3--3--3--3--3--3--3--3--3--3--3--3--3--3--------------5--5--5--5--3--3--3--3--
E|--------------------------------------------------------------------------3--3--3--3--------------

Stave 7:

E|--------------
B|--------------
G|--------------
D|--2--3--3--3--
A|--2--3--3--3--
E|--0--1--1--1--

Stave 8:

E|-----------------
B|-----------------
G|--------------5--
D|--2--3--3--3--5--
A|--2--3--3--3--3--
E|--0--1--1--1-----

Stave 9:

E|-----------------
B|-----------------
G|-----------------
D|--2--3--3--3--5--
A|--2--3--3--3--5--
E|--0--1--1--1--3--

Stave 10:

E|--------------------------
B|--------------------------
G|--------------------------
D|--------------------------
A|--3--5--6--5--3--5--6--5--
E|--------------------------

http://www.guitartabcreator.com
Guitar Tab Creator is intended to store guitar tab created through the tool. It currently does not support in-line text editing. Any text you place in here will be lost. If you need to comment on your tab, please use the "Tab Notes" section located below.