Sound will begin in 5 seconds

Unitled Solo

Chords
01234567891011121314151617181920212223
E
B
G
D
A
E
B
0 1 2 3 4 5 6 7 8 9 10 11 12 13 14 15 16 17 18 19 20 21 22 23
Song Science #1: How Pros Use 6 Chords to Write Hit Songs
(/) Slide Up  (\) Slide Down  (h) Hammer On  (p) Pull Off  (b) Bend (r) Release (v) Vibrato

Stave 1:

E|------------------------------------------------------------------------------------------------------
B|-----------------16b18b16--15--13----------------------------------------16--16-----16b18b16--15------
G|--12-----14--15--------------------15--14--15--14--15---------12--14------------------------------15--
D|-------------------------------------------------------15---------------------------------------------
A|------------------------------------------------------------------------------------------------------
E|------------------------------------------------------------------------------------------------------

Stave 2:

E|-----------------------------------------------------------------------------------------
B|-----------------------------------------------------------------------------------------
G|--14------------------------15--15-----17--15--14v-----12--11----------------------------
D|------15--13-----15--17----------------------------------------12------------------------
A|-------------------------------------------------------------------12--10--9------9--12--
E|------------------------------------------------------------------------------10---------

Stave 3:

E|-------------------------------------------------------------------------------------------
B|-----------------11----------------------------11---------------------------10-------------
G|-------------12------12--------------------12------12-------------------10------10---------
D|------8--12--------------12--8------8--12--------------12--8-----7--10--------------10--7--
A|--10----------------------------10----------------------------8----------------------------
E|-------------------------------------------------------------------------------------------

Stave 4:

E|-------------------------------------------------------------------------------
B|----------------10-------------------------8-----------------------8-----------
G|------------10------10------------------8-----8-----------------8-----8--------
D|-----7--10--------------10--7-----5--8-----------8--5-----5--8-----------8--5--
A|--8----------------------------6-----------------------6-----------------------
E|-------------------------------------------------------------------------------

Stave 5:

E|---------------------------------------------10--14-----15----------------------15------
B|--------------7-----------------------7--10-----------------15--------------15------15--
G|-----------7-----7-----------------7----------------------------15--12--15--------------
D|-----4--7-----------7--4-----4--7-------------------------------------------------------
A|--5-----------------------5-------------------------------------------------------------
E|----------------------------------------------------------------------------------------

Stave 6:

E|--15----------------------15------13----------------------13------13----------------------13------
B|------15--------------15------15------13--10------10--13------13------13--10------10--13------13--
G|----------15--12--15--------------------------10------------------------------10------------------
D|--------------------------------------------------------------------------------------------------
A|--------------------------------------------------------------------------------------------------
E|--------------------------------------------------------------------------------------------------

Stave 7:

E|--11-------------------11------11-------------------11------10---------------------------------------
B|------11--8-----8--11------11------11--8-----8--11------11------10--7-----------------------------8--
G|-------------8----------------------------8----------------------------7--------------------------7--
D|--------------------------------------------------------------------------7--4-----------------4--5--
A|--------------------------------------------------------------------------------5-----------5--------
E|-----------------------------------------------------------------------------------5--2--5-----------

http://www.guitartabcreator.com
Guitar Tab Creator is intended to store guitar tab created through the tool. It currently does not support in-line text editing. Any text you place in here will be lost. If you need to comment on your tab, please use the "Tab Notes" section located below.