Sound will begin in 5 seconds

Immigration of mekka

01234567891011121314151617181920212223
E
B
G
D
A
E
B
0 1 2 3 4 5 6 7 8 9 10 11 12 13 14 15 16 17 18 19 20 21 22 23
Song Science #1: How Pros Use 6 Chords to Write Hit Songs
(/) Slide Up  (\) Slide Down  (h) Hammer On  (p) Pull Off  (b) Bend (r) Release (v) Vibrato

Stave 1:

E|-----------------------------------------------------------
B|-----------------------------------------------------------
G|-----------------------------------------------------------
D|-----------------------------------------------------------
A|--------3--2-----0-----------------------3--2-----0--------
E|--0--0--------4-----1--4--0--0--0--0--0--------4-----1--4--

Stave 2:

E|-----------------------------------------------------------
B|-----------------------------------------------------------
G|-----------------------------------------------------------
D|-----------------------------------------------------------
A|--------3--2-----0-----------------------3--2-----0--------
E|--0--0--------4-----1--4--0--0--0--0--0--------4-----1--0--

Stave 3:

E|--------------------------------------------------------------------------------------------------------------------------------
B|--------------------------------------------------------------------------------------------------------------------------------
G|--------------------1--1-----------------1--1-----------------2--2-----------------1--1-----------------1--1-----------------2--
D|--------2--------2--------2-----------2--------2-----------3--------3-----------2--------2-----------2--------2-----------3-----
A|-----2--------2--------------2-----2--------------2-----3--------------3-----2--------------2-----2--------------2-----3--------
E|--0--------0--------------------0--------------------0--------------------0--------------------0--------------------0-----------

Stave 4:

E|-----------------------------
B|-----------------------------
G|-----------2--------4--2-----
D|--------3--------3--------3--
A|-----3--------3--------------
E|--0--------------------------

Stave 5:

E|-----------------------------------------------------------------------------------------------
B|-----------------------------------------------------------------------------------------------
G|-----------------------------------------------------------------------------------------------
D|--------------3--------2-----------------------2--------6--------------3--------------3-----2--
A|-----------3--------2--------------3--3-----2--------6--------------3--------------3-----2-----
E|--0--0--1--------0--------0--1--1--------0--------4--------0--0--1--------0--0--1--------------

Stave 6:

E|--------------------------------------------------------------------
B|--------------------------------------------------------------------
G|--------------------------------------------------------------------
D|--------7--------------3--------2--------------3--------2--------6--
A|-----7--------------3--------2--------------3--------2--------6-----
E|--5--------0--0--1--------0--------0--0--1--------0--------4--------

Stave 7:

E|-----------------------------------
B|-----------------------------------
G|-----------------2--1--2--1-----2--
D|-----------------------------3-----
A|-----------------------------------
E|-----------------------------------

Stave 8:

E|--------------------------------------
B|--------------------------------------
G|--2--1-----1--------------------------
D|--------3-----3--2--3--2--0--2--3--2--
A|--------------------------------------
E|--------------------------------------

Stave 9:

E|-----------------------------------------------------------------------
B|-----------------------------------------------------------------------
G|--------5--------2-----------------------------------------------------
D|-----5--------2--------------------------2-----------------3-----------
A|--3--------0-----------------3--3-----2--------------3--------2--0-----
E|--------------------0--0--1--------0--------0--0--1-----------------4--

http://www.guitartabcreator.com
Guitar Tab Creator is intended to store guitar tab created through the tool. It currently does not support in-line text editing. Any text you place in here will be lost. If you need to comment on your tab, please use the "Tab Notes" section located below.