Sound will begin in 5 seconds

Grandmas Wedding Song

01234567891011121314151617181920212223
E
B
G
D
A
E
B
0 1 2 3 4 5 6 7 8 9 10 11 12 13 14 15 16 17 18 19 20 21 22 23
Song Science #1: How Pros Use 6 Chords to Write Hit Songs
(/) Slide Up  (\) Slide Down  (h) Hammer On  (p) Pull Off  (b) Bend (r) Release (v) Vibrato

Stave 1:

E|----------------------14--17--14------------------------------------9--12--9--------------------
B|------------------15--------------15----------------------------10------------10----------------
G|--------------14----------------------14---------------------9--------------------9-------------
D|----------16------------------------------16-------------11--------------------------11---------
A|------17--------------------------------------17-----12----------------------------------12-----
E|--14----------------------------------------------9------------------------------------------9--

Stave 2:

E|----------------------10--14--10---------------------------------5--9--5-----------------
B|------------------12--------------12--------------------------7-----------7--------------
G|--------------11----------------------11-------------------6-----------------6-----------
D|----------12------------------------------12------------7-----------------------7--------
A|------14--------------------------------------14-----9-----------------------------9-----
E|--10----------------------------------------------5-----------------------------------5--

Stave 3:

E|------------------7--10--7------------------------------5--9--5--------------
B|---------------8------------8------------------------7-----------7-----------
G|------------7------------------7------------------6-----------------6--------
D|---------9------------------------9------------7-----------------------7-----
A|-----10------------------------------10-----9-----------------------------9--
E|--7--------------------------------------5-----------------------------------

Stave 4:

E|------------------7--10--7---------------------------------9--12--9-----------------
B|---------------8------------8--------------------------10------------10-------------
G|------------7------------------7--------------------9--------------------9----------
D|---------9------------------------9-------------11--------------------------11------
A|-----10------------------------------10-----12----------------------------------12--
E|--7--------------------------------------9------------------------------------------

Stave 5:

E|--17--14------17--14------17--14------17--14------17--14------
B|----------15----------15----------15----------15----------15--
G|--------------------------------------------------------------
D|--------------------------------------------------------------
A|--------------------------------------------------------------
E|--------------------------------------------------------------

Stave 6:

E|--12--9------12--9------12--9------12--9------12--9--
B|---------10---------10---------10---------10---------
G|-----------------------------------------------------
D|-----------------------------------------------------
A|-----------------------------------------------------
E|-----------------------------------------------------

Stave 7:

E|--14--10------14--10------14--10------14--10------10------
B|----------12----------12----------12----------12------12--
G|----------------------------------------------------------
D|----------------------------------------------------------
A|----------------------------------------------------------
E|----------------------------------------------------------

Stave 8:

E|--9--5-----9--5-----9--5-----9--5-----9--5-----
B|--------7--------7--------7--------7--------7--
G|-----------------------------------------------
D|-----------------------------------------------
A|-----------------------------------------------
E|-----------------------------------------------

Stave 9:

E|--10--7-----10--7-----10--7-----10--7-----10--7-----
B|---------8---------8---------8---------8---------8--
G|----------------------------------------------------
D|----------------------------------------------------
A|----------------------------------------------------
E|----------------------------------------------------

Stave 10:

E|--12--9------12--9------12--9------12--9------12--9------
B|---------10---------10---------10---------10---------10--
G|---------------------------------------------------------
D|---------------------------------------------------------
A|---------------------------------------------------------
E|---------------------------------------------------------

http://www.guitartabcreator.com
Guitar Tab Creator is intended to store guitar tab created through the tool. It currently does not support in-line text editing. Any text you place in here will be lost. If you need to comment on your tab, please use the "Tab Notes" section located below.