Sound will begin in 5 seconds

Still haven't found out

Chords
01234567891011121314151617181920212223
E
B
G
D
A
E
B
0 1 2 3 4 5 6 7 8 9 10 11 12 13 14 15 16 17 18 19 20 21 22 23
Song Science #1: How Pros Use 6 Chords to Write Hit Songs
(/) Slide Up  (\) Slide Down  (h) Hammer On  (p) Pull Off  (b) Bend (r) Release (v) Vibrato

(W|WW) Whole (H|HH) Half (Q|QQ) Quarter (E|EE) 8th (S|SS) 16th (T|TT) 32nd (X|XX) 64th

Stave 1:
t: H H H H H H H H H H H H W H H H H H H H H H H H H W
E|--------------------------|-----------------|--------------------------|-----------------|--
B|--------------------------|-----------------|--------------------------|-----------------|--
G|--------2-----------2-----|--------2--------|--------2-----------2-----|--------2--------|--
D|-----2-----2-----2-----2--|-----2-----2-----|-----2-----------2-----2--|-----2-----2-----|--
A|--0-----------3-----------|-----------------|--0--------2--3-----------|-----------------|--
D|--------------------------|--3-----------5--|--------------------------|--3-----------0--|--

Stave 2:
t: HH WW WW HH WW HH HH HH HH HH HH HH WW WW HH HH HH HH HH HH HH HH HH WW WW WW WW WW W W W W H H H H W Q Q W Q W W Q Q Q Q Q Q W
E|----------------------|--------------------------|-------------------------|---------------------|---------------|------------|--------------------|-----------------------------|-------|--
B|----------------------|--------------------------|-------------------------|---------------------|---------------|------------|--------------------|-----------------------------|-------|--
G|----------------------|--------------------------|-------------------------|---------------------|---------------|------------|--------------------|--------------------0h2h4p0--|--2/9--|--
D|----------------------|--------------10--12--14--|--12--10--12--14p10------|---------------------|---------------|------------|--------------------|-----------0h2h3h5-----------|-------|--
A|--12--12--12--14--15--|--12--10--12--------------|---------------------12--|--10h12p10h12b15r12--|--12b14b15r12--|--10--7--5--|--5--7--5--7--5--0--|--0h2h3h5--------------------|-------|--
D|----------------------|--------------------------|-------------------------|---------------------|---------------|------------|--------------------|-----------------------------|-------|--

Stave 3:
t: W W W W W W W W W W W W W W W W W W W W W W W W W W W W W W
E|-------------------------------------------------|--------------------------------------------------|--
B|-------------------------------------------------|--------------------------------------------------|--
G|--------2----------------------------------------|--------2-----------------------------------------|--
D|-----2-----2--5-5--x--3-----3--3--3--3-----------|-----2-----2--5--2--x--3-----3--3--3--3--0--0--x--|--
A|--0-----------2/3--x--3-----3--3--3--3--3--2-----|--0-----------2--3--x--3-----3--3--3--3--0--0--x--|--
D|----------------------3-----3--3--3--3--------5--|-----------------------3-----3--3--3--3--0--0--x--|--

Stave 4:
t: W W WW W W W W W W W
E|---------------------------------|--
B|---------------------------------|--
G|---------------------------------|--
D|--7--9--10--5--7--9--3--5--7--5--|--
A|--7--9--10--5--7--9--3--5--7--5--|--
D|--7--9--10--5--7--9--3--5--7--5--|--

http://www.guitartabcreator.com
Guitar Tab Creator is intended to store guitar tab created through the tool. It currently does not support in-line text editing. Any text you place in here will be lost. If you need to comment on your tab, please use the "Tab Notes" section located below.