Sound will begin in 5 seconds

sdaylpg

Chords
01234567891011121314151617181920212223
E
B
G
D
A
E
B
0 1 2 3 4 5 6 7 8 9 10 11 12 13 14 15 16 17 18 19 20 21 22 23
Song Science #1: How Pros Use 6 Chords to Write Hit Songs
(/) Slide Up  (\) Slide Down  (h) Hammer On  (p) Pull Off  (b) Bend (r) Release (v) Vibrato

Stave 1:

E|-----------------------------------|-----------------------------------------|--
B|-----------------------------------|-----------------------------------------|--
G|-----5--7-----8-----5--7-----8--7--|-----5--7-----8-----5--7-----8--7--5--7--|--
D|-----5--7-----8-----5--7-----8--7--|-----5--7-----8-----5--7-----8--7--5--7--|--
A|-----3--5-----6-----3--5-----6--5--|-----3--5-----6-----3--5-----6--5--3--5--|--
D|--0--------0-----0--------0--------|--0--------0-----0--------0--------------|--

Stave 2:

E|-----------------------------|-----------------------------|--
B|-----------------------------|-----------------------------|--
G|-----------------------------|-----------------------------|--
D|-----------------------------|-----------------------------|--
A|-----------------------------|-----------------------------|--
D|--0--10h12--0--13--0--10h12--|--0--13--0--10h12--0--13--0--|--

Stave 3:

E|--------------------------------------|--
B|--------------------------------------|--
G|--------------------------------------|--
D|--------------------------------------|--
A|--------------------------------------|--
D|--0--0--0--0--10--0--0--5--0--0--3h5--|--

Stave 4:

E|-------------------------------------------------------------------------------------|--
B|-------------------------------------------------------------------------------------|--
G|-------------------------------------------------------------------------------------|--
D|-------------------------------------------------------------------------------------|--
A|-------------------------------------------------------------------------------3--5--|--
D|--0--0--10--0--0--5--0--0--3--0--0--5--0--0--6--0--0--5--0--0--3--0--0--2h3p2--2--0--|--

Stave 5:

E|-------------------------------------|----------------------------------------|--
B|-------------------------------------|----------------------------------------|--
G|-------------------------------------|----------------------------------------|--
D|-------------------------------------|----------------------------3-----------|--
A|---------3-----5------------3-----2--|---------3-----5------------------5-----|--
D|--0h3h5-----0-----0--0h3h5-----0-----|--0h3h5-----0-----0--0h3h5-----0-----0--|--

Stave 6:

E|-----------------------------------
B|-----------------------------------
G|-----------------------------------
D|-----3--------------3--------------
A|-----------5--------------5--------
D|--0-----0-----0--0-----0-----0--0--

http://www.guitartabcreator.com
Guitar Tab Creator is intended to store guitar tab created through the tool. It currently does not support in-line text editing. Any text you place in here will be lost. If you need to comment on your tab, please use the "Tab Notes" section located below.