Sound will begin in 5 seconds

I have not found that out yet

Chords
01234567891011121314151617181920212223
E
B
G
D
A
E
B
0 1 2 3 4 5 6 7 8 9 10 11 12 13 14 15 16 17 18 19 20 21 22 23
Song Science #1: How Pros Use 6 Chords to Write Hit Songs
(/) Slide Up  (\) Slide Down  (h) Hammer On  (p) Pull Off  (b) Bend (r) Release (v) Vibrato

Stave 1:

E|---------------------------------------|-
B|---------------------------------------|-
G|---------------------------------------|-
D|-13-13-x-13-9-9-x-9-11-11-x-11-6-7-x-6-|-
A|-11-11-x-11-7-7-x-7-9--9--x-9--4-4-x-4-|-
D|-11-11-x-11-7-7-x-7-9--9--x-9--4-4-x-4-|-

Stave 2:

E|-----------------------------------|-
B|-------------------------9-------4-|-
G|-----4h6/8-9-8-6-------9-------4---|-
D|---6-------------9---9-------4-----|-
A|-4-----------------7-------2-------|-
D|-----------------------------------|-

Stave 3:

E|---------------------------------|-------------------------------|-
B|---------------------------------|-------------------------------|-
G|---------------------------------|-------------------------------|-
D|---------------------------------|-------------------------------|-
A|-4-6-7-6---6-7-6-7-6-7-6---6-7-6-|-4-6-7-6---6-7-6-6-6-6-6-6-6-6-|-
D|---------7---------------9-------|---------7-------9-9-9-9-9-9-9-|-

Stave 4:

E|-------------------------------------------------------------------|-
B|-----------------4-5-7-5-4-5-4-----5-------------------------------|-
G|-------------4-6---------------4-6---6-4-6-4-----------------------|-
D|-------4-6-7---------------------------------7-6-4-6-7-6-----4-----|-
A|-4-6-7---------------------------------------------------7-6---6-7-|-
D|-------------------------------------------------------------------|-

Stave 5:

E|---------------------------------|-
B|---------------------------------|-
G|---------------------------------|-
D|---------7---------------6-------|-
A|---6-7-9---9-7-6---6-7-9---9-7-6-|-
D|-7---------------6---------------|-

http://www.guitartabcreator.com
Guitar Tab Creator is intended to store guitar tab created through the tool. It currently does not support in-line text editing. Any text you place in here will be lost. If you need to comment on your tab, please use the "Tab Notes" section located below.