Sound will begin in 5 seconds

Carulli

Chords
01234567891011121314151617181920212223
E
B
G
D
A
E
B
0 1 2 3 4 5 6 7 8 9 10 11 12 13 14 15 16 17 18 19 20 21 22 23
(/) Slide Up  (\) Slide Down  (h) Hammer On  (p) Pull Off  (b) Bend (r) Release (v) Vibrato

Stave 1:

E|-------------------7--7--8p7------7--8--8------7--8--9--10--7-----5--5--4--5--7--4--5--5--4--5--7--4--
B|-----8--10p8--7h8-------------10-----------10------------------8--------------------------------------
G|-------------------0----------------------------------------------------------------------------------
D|-------------------------------------0------------------0---------------------------------------------
A|------------------------------------------------------------------0-----------------0-----------------
E|------------------------------------------------------------------------0-----------------0-----------

Stave 2:

E|------7--8------10--8--7------------------------------10p8--8--8--8p7--7--7-----------------------------
B|--10--------10------------10--8--7-----------------8-------------------------12p10--10--10--10\8--8--8--
G|------------------------------------9--7--6--7--9-------------------------------------------------------
D|--------------------------------------------------------------------------------------------------------
A|--0-----------------------------------------------------------------------------------------------------
E|--------------------------------------------------------------------------------------------------------

Stave 3:

E|--------8-----------------------------7--8--10--7--8--10--12-----12--10------7--8--10-----10--8--7-----
B|-----------10--10--8--10p8--7--8--10-------------------------------------12-------------------------8--
G|--9--7-------------------------0------------------------------9------------------------7---------------
D|-------------------------------------------------------------------------------------------------------
A|-------------------------------------------------------------------------------------------------------
E|-------------------------------------------------------------------------------------------------------

Stave 4:

E|------7-----8--7-------------------------
B|--10--------------10--10--8--10p8--7--8--
G|---------9-------------------------------
D|-----------------------------------------
A|-----------------------------------------
E|-----------------------------------------

http://www.guitartabcreator.com
Guitar Tab Creator is intended to store guitar tab created through the tool. It currently does not support in-line text editing. Any text you place in here will be lost. If you need to comment on your tab, please use the "Tab Notes" section located below.