tugas

Chords

01234567891011121314151617181920212223
E
B
G
D
A
E
B
0 1 2 3 4 5 6 7 8 9 10 11 12 13 14 15 16 17 18 19 20 21 22 23
(/) Slide Up  (\) Slide Down  (h) Hammer On  (p) Pull Off  (b) Bend (r) Release (v) Vibrato

Stave 1:

E|--------------|-----------------|--------------------|--------------------|-----------------|--
B|--1-----0-----|--1-----0-----0--|--1--0--------------|-----------0-----1--|--------0--1--1--|--
G|-----------0--|-----------0-----|--------0-----------|--------0-----0-----|-----------------|--
D|--------------|-----------------|-----------3--2-----|--3-----------------|--3--------------|--
A|--------------|-----------------|-----------------3--|--------------------|-----------------|--
E|--------------|-----------------|--------------------|--------------------|-----------------|--

Stave 2:

E|--1--0-----------|--1--0--------------|--3--------------1--1--|-----------------|--
B|--------1--0--1--|--------1-----------|--------1-----1--------|-----------------|--
G|-----------------|-----------0--------|-----------0-----------|--0--------------|--
D|-----------------|--------------3-----|-----------------------|-----3-----------|--
A|-----------------|--------------------|-----------------------|-----------2--3--|--
E|-----------------|--------------------|-----------------------|-----------------|--

Stave 3:

E|--------------|--------------------|-----------------|-----------------|--------------0--1--|--
B|--------------|--------------------|-----0-----------|--------1-----0--|-----1-----1--------|--
G|--------0-----|-----------------0--|--0-----0--------|-----0-----0-----|--------0-----------|--
D|--2--3--------|--------3--2--3-----|-----------3--2--|--3--------------|--------------------|--
A|-----------3--|-----3--------------|-----------------|-----------------|--------------------|--
E|--------------|--------------------|-----------------|-----------------|--------------------|--

Stave 4:

E|-----------------|-----------------|--
B|--0--1-----------|-----------------|--
G|--------0--------|-----------------|--
D|-----------3--2--|-----------------|--
A|-----------------|--3--------------|--
E|-----------------|-----------------|--

							http://www.guitartabcreator.com
Instruments
{"strings":[[[".","_",".",".","|",".","_",".",".",".","|",".",".",".",".",".",".","|",".","_",".",".",".",".","|",".","_",".",".",".","|"],[1,"_",0,".","|",1,"_",0,".",0,"|",1,0,".",".",".",".","|",".","_",".",0,".",1,"|",".","_",0,1,1,"|"],[".","_",".",0,"|",".","_",".",0,".","|",".",".",0,".",".",".","|",".","_",0,".",0,".","|",".","_",".",".",".","|"],[".","_",".",".","|",".","_",".",".",".","|",".",".",".",3,2,".","|",3,"_",".",".",".",".","|",3,"_",".",".",".","|"],[".","_",".",".","|",".","_",".",".",".","|",".",".",".",".",".",3,"|",".","_",".",".",".",".","|",".","_",".",".",".","|"],[".","_",".",".","|",".","_",".",".",".","|",".",".",".",".",".",".","|",".","_",".",".",".",".","|",".","_",".",".",".","|"]],[[1,0,".",".",".","|",1,0,".",".",".","_","|",3,"_",".",".",".",1,1,"|",".",".","_",".",".","|"],[".",".",1,0,1,"|",".",".",1,".",".","_","|",".","_",1,".",1,".",".","|",".",".","_",".",".","|"],[".",".",".",".",".","|",".",".",".",0,".","_","|",".","_",".",0,".",".",".","|",0,".","_",".",".","|"],[".",".",".",".",".","|",".",".",".",".",3,"_","|",".","_",".",".",".",".",".","|",".",3,"_",".",".","|"],[".",".",".",".",".","|",".",".",".",".",".","_","|",".","_",".",".",".",".",".","|",".",".","_",2,3,"|"],[".",".",".",".",".","|",".",".",".",".",".","_","|",".","_",".",".",".",".",".","|",".",".","_",".",".","|"]],[[".",".",".",".","|","_",".",".",".",".",".","|",".",".",".",".",".","|",".",".",".",".",".","|","_",".",".",".",0,1,"|"],[".",".",".",".","|","_",".",".",".",".",".","|",".",0,".",".",".","|",".",".",1,".",0,"|","_",1,".",1,".",".","|"],[".",".",0,".","|","_",".",".",".",".",0,"|",0,".",0,".",".","|",".",0,".",0,".","|","_",".",0,".",".",".","|"],[2,3,".",".","|","_",".",3,2,3,".","|",".",".",".",3,2,"|",3,".",".",".",".","|","_",".",".",".",".",".","|"],[".",".",".",3,"|","_",3,".",".",".",".","|",".",".",".",".",".","|",".",".",".",".",".","|","_",".",".",".",".",".","|"],[".",".",".",".","|","_",".",".",".",".",".","|",".",".",".",".",".","|",".",".",".",".",".","|","_",".",".",".",".",".","|"]],[[".",".",".",".",".","|",".","_","_","_","_","|"],[0,1,".",".",".","|",".","_","_","_","_","|"],[".",".",0,".",".","|",".","_","_","_","_","|"],[".",".",".",3,2,"|",".","_","_","_","_","|"],[".",".",".",".",".","|",3,"_","_","_","_","|"],[".",".",".",".",".","|",".","_","_","_","_","|"]]],"numberofstrings":6,"notes":["E","B","G","D","A","E","B"],"capo":0,"stringnotes":["E4","B3","G3","D3","A2","E2"],"comments":["Stave 1:","Stave 2:","Stave 3:","Stave 4:"],"timing":[[null,null,null,null,null,null,null,null,null,null,null,null,null,null,null,null,null,null,null,"W","W","W","W","W",null,"W",null,"W","W","W"],["W","W","W","W","W",null,"W","W","W","W","W",null,null,"W","W","W","W","W","W","W",null,"W","W","W","W","W"],["W","W","W","W",null,"W","W","W","W","W","W",null,"W","W","W","W","W",null,"W","W","W","W","W",null,null,"W","W","W","W","W"],["W","W","W","W","W",null,"W"]],"timingvisible":false,"tabcounter":31,"stave":2,"totalstaves":4,"instrument":"6guitar","selectedtuning":"6_standard","version":"13"}

Member for

1 month 2 weeks
Submitted by oogabooga on Wed, 2020-12-02 04:17