Sound will begin in 5 seconds

Fear of Failure

Chords
01234567891011121314151617181920212223
E
B
G
D
A
E
B
0 1 2 3 4 5 6 7 8 9 10 11 12 13 14 15 16 17 18 19 20 21 22 23
Song Science #1: How Pros Use 6 Chords to Write Hit Songs
(/) Slide Up  (\) Slide Down  (h) Hammer On  (p) Pull Off  (b) Bend (r) Release (v) Vibrato

Stave 1:

E|--------------------------------------------------
B|--------------------------------------------------
G|--------------------------------------------------
D|--------------------------6--6--6--7--6--4--------
A|--4--4--6--6--7--7--4--4--------------------7--6--
E|--------------------------------------------------

Stave 2:

E|--------------------------------------------------
B|--------------------------------------------------
G|--------------------------------------------------
D|--------------------------6--6--6--7--6--4--------
A|--3--3--4--4--6--6--------------------------7--6--
E|--------------------4--4--------------------------

Stave 3:

E|--------------------------------------------
B|--------------------------------------------
G|--------------------------------------------
D|--------------------------------------------
A|--------4-----5--6--7--------4-----5--6--7--
E|--5--5-----5-----------5--5-----5-----------

Stave 4:

E|--------------------------
B|--------------------------
G|--------------------------
D|--------6-----7--8--9-----
A|--7--7-----7-----------7--
E|--------------------------

Stave 5:

E|-----------------------
B|-----------------------
G|-----------------------
D|-----------------------
A|--------------------2--
E|--0--2--0--3--0--4-----

Stave 6:

E|--------------------------
B|--------------------------
G|--------------------------
D|--9--9--9--7--9--4--4--4--
A|--7--7--7--5--7--2--2--2--
E|--------------------------

Stave 7:

E|--------------------------------
B|--------------------------------
G|--------------------------------
D|--------------------------------
A|--------------------------------
E|--4--4--5--5--2--2--2--4--2--0--

Stave 8:

E|--------------------------
B|--------------------------
G|--------------------------
D|--9--9--9--7--9--4--4--4--
A|--7--7--7--5--7--2--2--2--
E|--------------------------

Stave 9:

E|----------------------------------------
B|----------------------------------------
G|----------------------------------------
D|--12--11--9--7--7--9--9--9--7--9--9--9--
A|--10--9---7--5--5--7--7--7--5--7--7--7--
E|----------------------------------------

Stave 10:

E|--12--9--------------------12--9-----------------------
B|---------12--9------9-------------12--9------9--12b12--
G|----------------11-----11----------------11------------
D|-------------------------------------------------------
A|-------------------------------------------------------
E|-------------------------------------------------------

Stave 11:

E|--12--9-------------------------------------------------------
B|---------12--9------9----------9--10--9---------9--10--9------
G|----------------11-----11--11------------11--9------------11--
D|--------------------------------------------------------------
A|--------------------------------------------------------------
E|--------------------------------------------------------------

http://www.guitartabcreator.com
Guitar Tab Creator is intended to store guitar tab created through the tool. It currently does not support in-line text editing. Any text you place in here will be lost. If you need to comment on your tab, please use the "Tab Notes" section located below.