New Song - DA

Chords

01234567891011121314151617181920212223
E
B
G
D
A
E
B
0 1 2 3 4 5 6 7 8 9 10 11 12 13 14 15 16 17 18 19 20 21 22 23
(/) Slide Up  (\) Slide Down  (h) Hammer On  (p) Pull Off  (b) Bend (r) Release (v) Vibrato

Intro/Verse

D|--------------------7-----------------------------|--------------------------------------------------|--------------------------------------------------|--------------------------------------------------|--
A|--0-----------0-----------0-----------0-----------|--------------------------------------------7-----|--3-----------3-----------3-----------3-----------|--3-----------3-----------3-----------3-----------|--
E|--------------------------------------------3-----|--0-----------0-----------0-----------0-----------|--------------------------------------------------|--------------------------------------------------|--
B|--------------------------------------------------|--------------------------------------------------|--------------------------------------------------|--------------------------------------------------|--

Chorus

D|--------------------------------------------------|--------------------------------------------------|--------------------------------------------------|--------------------------------------------------|--
A|--------------------------------------------------|--------------------------------------------------|--------------------------------------------------|--------------------------------------------------|--
E|--1-----------1-----------3-----------3-----------|--5-----------5-----------5-----------5-----------|--------------------------------------------------|--------------------------------------------------|--
B|--------------------------------------------------|--------------------------------------------------|--------------------------------------------------|--------------------------------------------------|--

Verse

D|--------------------------------------------------|--------------------------------------------------|--------------------------------------------------|--------------------------------------------------|--
A|--------------------------------------------------|--------------------------------------------------|--------------------------------------------------|--------------------------------------------------|--
E|--------------------------------------------------|--------------------------------------------------|--------------------------------------------------|--------------------------------------------------|--
B|--------------------------------------------------|--------------------------------------------------|--------------------------------------------------|--------------------------------------------------|--

Chorus

D|--------------------------------------------------|--------------------------------------------------|--------------------------------------------------|--------------------------------------------------|--
A|--------------------------------------------------|--------------------------------------------------|--------------------------------------------------|--------------------------------------------------|--
E|--------------------------------------------------|--------------------------------------------------|--------------------------------------------------|--------------------------------------------------|--
B|--------------------------------------------------|--------------------------------------------------|--------------------------------------------------|--------------------------------------------------|--

Verse

D|--------------------------------------------------|--------------------------------------------------|--------------------------------------------------|--------------------------------------------------|--
A|--------------------------------------------------|--------------------------------------------------|--------------------------------------------------|--------------------------------------------------|--
E|--------------------------------------------------|--------------------------------------------------|--------------------------------------------------|--------------------------------------------------|--
B|--------------------------------------------------|--------------------------------------------------|--------------------------------------------------|--------------------------------------------------|--

Chorus

D|--------------------------------------------------|--------------------------------------------------|--------------------------------------------------|--------------------------------------------------|--
A|--------------------------------------------------|--------------------------------------------------|--------------------------------------------------|--------------------------------------------------|--
E|--------------------------------------------------|--------------------------------------------------|--------------------------------------------------|--------------------------------------------------|--
B|--------------------------------------------------|--------------------------------------------------|--------------------------------------------------|--------------------------------------------------|--

Bridge 

D|--------------------------------------------------|--------------------------------------------------|--------------------------------------------------|--------------------------------------------------|--
A|--------------------------------------------------|--------------------------------------------------|--------------------------------------------------|--------------------------------------------------|--
E|--------------------------------------------------|--------------------------------------------------|--------------------------------------------------|--------------------------------------------------|--
B|--------------------------------------------------|--------------------------------------------------|--------------------------------------------------|--------------------------------------------------|--

							http://www.guitartabcreator.com
Tab Notes
Am 1-measure, Em 1-measure, C 1-measure, C 1-measure F 2-beats, G 2-beats, A 1-measure
Instruments
{"strings":[[[".",".",".",".",".",".",7,".",".",".",".",".",".",".",".",".","|",".",".",".",".",".",".",".",".",".",".",".",".",".",".",".",".","|",".",".",".",".",".",".",".",".",".",".",".",".",".",".",".",".","|",".",".",".",".",".",".",".",".",".",".",".",".",".",".",".",".","|"],[0,".",".",".",0,".",".",".",0,".",".",".",0,".",".",".","|",".",".",".",".",".",".",".",".",".",".",".",".",".",".",7,".","|",3,".",".",".",3,".",".",".",3,".",".",".",3,".",".",".","|",3,".",".",".",3,".",".",".",3,".",".",".",3,".",".",".","|"],[".",".",".",".",".",".",".",".",".",".",".",".",".",".",3,".","|",0,".",".",".",0,".",".",".",0,".",".",".",0,".",".",".","|",".",".",".",".",".",".",".",".",".",".",".",".",".",".",".",".","|",".",".",".",".",".",".",".",".",".",".",".",".",".",".",".",".","|"],[".",".",".",".",".",".",".",".",".",".",".",".",".",".",".",".","|",".",".",".",".",".",".",".",".",".",".",".",".",".",".",".",".","|",".",".",".",".",".",".",".",".",".",".",".",".",".",".",".",".","|",".",".",".",".",".",".",".",".",".",".",".",".",".",".",".",".","|"]],[[".",".",".",".",".",".",".",".",".",".",".",".",".",".",".",".","|",".",".",".",".",".",".",".",".",".",".",".",".",".",".",".",".","|",".",".",".",".",".",".",".",".",".",".",".",".",".",".",".",".","|",".",".",".",".",".",".",".",".",".",".",".",".",".",".",".",".","|"],[".",".",".",".",".",".",".",".",".",".",".",".",".",".",".",".","|",".",".",".",".",".",".",".",".",".",".",".",".",".",".",".",".","|",".",".",".",".",".",".",".",".",".",".",".",".",".",".",".",".","|",".",".",".",".",".",".",".",".",".",".",".",".",".",".",".",".","|"],[1,".",".",".",1,".",".",".",3,".",".",".",3,".",".",".","|",5,".",".",".",5,".",".",".",5,".",".",".",5,".",".",".","|",".",".",".",".",".",".",".",".",".",".",".",".",".",".",".",".","|",".",".",".",".",".",".",".",".",".",".",".",".",".",".",".",".","|"],[".",".",".",".",".",".",".",".",".",".",".",".",".",".",".",".","|",".",".",".",".",".",".",".",".",".",".",".",".",".",".",".",".","|",".",".",".",".",".",".",".",".",".",".",".",".",".",".",".",".","|",".",".",".",".",".",".",".",".",".",".",".",".",".",".",".",".","|"]],[["_","_","_","_","_","_","_","_",".",".",".",".",".",".",".",".","|",".",".",".",".",".",".",".",".",".",".",".",".",".",".",".",".","|",".",".",".",".",".",".",".",".",".",".",".",".",".",".",".",".","|",".",".",".",".",".",".",".",".",".",".",".",".",".",".",".",".","|"],["_","_","_","_","_","_","_","_",".",".",".",".",".",".",".",".","|",".",".",".",".",".",".",".",".",".",".",".",".",".",".",".",".","|",".",".",".",".",".",".",".",".",".",".",".",".",".",".",".",".","|",".",".",".",".",".",".",".",".",".",".",".",".",".",".",".",".","|"],["_","_","_","_","_","_","_","_",".",".",".",".",".",".",".",".","|",".",".",".",".",".",".",".",".",".",".",".",".",".",".",".",".","|",".",".",".",".",".",".",".",".",".",".",".",".",".",".",".",".","|",".",".",".",".",".",".",".",".",".",".",".",".",".",".",".",".","|"],["_","_","_","_","_","_","_","_",".",".",".",".",".",".",".",".","|",".",".",".",".",".",".",".",".",".",".",".",".",".",".",".",".","|",".",".",".",".",".",".",".",".",".",".",".",".",".",".",".",".","|",".",".",".",".",".",".",".",".",".",".",".",".",".",".",".",".","|"]],[[".",".",".",".",".",".","_","_","_","_","_","_","_","_","_","_","|","_","_","_","_","_","_","_","_","_","_","_","_","_","_","_","_","|","_","_","_","_","_","_","_","_","_","_","_","_","_","_","_","_","|","_","_","_","_","_","_","_","_","_","_","_","_","_","_","_","_","|"],[".",".",".",".",".",".","_","_","_","_","_","_","_","_","_","_","|","_","_","_","_","_","_","_","_","_","_","_","_","_","_","_","_","|","_","_","_","_","_","_","_","_","_","_","_","_","_","_","_","_","|","_","_","_","_","_","_","_","_","_","_","_","_","_","_","_","_","|"],[".",".",".",".",".",".","_","_","_","_","_","_","_","_","_","_","|","_","_","_","_","_","_","_","_","_","_","_","_","_","_","_","_","|","_","_","_","_","_","_","_","_","_","_","_","_","_","_","_","_","|","_","_","_","_","_","_","_","_","_","_","_","_","_","_","_","_","|"],[".",".",".",".",".",".","_","_","_","_","_","_","_","_","_","_","|","_","_","_","_","_","_","_","_","_","_","_","_","_","_","_","_","|","_","_","_","_","_","_","_","_","_","_","_","_","_","_","_","_","|","_","_","_","_","_","_","_","_","_","_","_","_","_","_","_","_","|"]],[["_","_","_","_","_","_","_","_","_","_","_","_","_","_","_","_","|","_","_","_","_","_","_","_","_","_","_","_","_","_","_","_","_","|","_","_","_","_","_","_","_","_","_","_","_","_","_","_","_","_","|","_","_","_","_","_","_","_","_","_","_","_","_","_","_","_","_","|"],["_","_","_","_","_","_","_","_","_","_","_","_","_","_","_","_","|","_","_","_","_","_","_","_","_","_","_","_","_","_","_","_","_","|","_","_","_","_","_","_","_","_","_","_","_","_","_","_","_","_","|","_","_","_","_","_","_","_","_","_","_","_","_","_","_","_","_","|"],["_","_","_","_","_","_","_","_","_","_","_","_","_","_","_","_","|","_","_","_","_","_","_","_","_","_","_","_","_","_","_","_","_","|","_","_","_","_","_","_","_","_","_","_","_","_","_","_","_","_","|","_","_","_","_","_","_","_","_","_","_","_","_","_","_","_","_","|"],["_","_","_","_","_","_","_","_","_","_","_","_","_","_","_","_","|","_","_","_","_","_","_","_","_","_","_","_","_","_","_","_","_","|","_","_","_","_","_","_","_","_","_","_","_","_","_","_","_","_","|","_","_","_","_","_","_","_","_","_","_","_","_","_","_","_","_","|"]],[["_","_","_","_","_","_","_","_","_","_","_","_","_","_","_","_","|","_","_","_","_","_","_","_","_","_","_","_","_","_","_","_","_","|","_","_","_","_","_","_","_","_","_","_","_","_","_","_","_","_","|","_","_","_","_","_","_","_","_","_","_","_","_","_","_","_","_","|"],["_","_","_","_","_","_","_","_","_","_","_","_","_","_","_","_","|","_","_","_","_","_","_","_","_","_","_","_","_","_","_","_","_","|","_","_","_","_","_","_","_","_","_","_","_","_","_","_","_","_","|","_","_","_","_","_","_","_","_","_","_","_","_","_","_","_","_","|"],["_","_","_","_","_","_","_","_","_","_","_","_","_","_","_","_","|","_","_","_","_","_","_","_","_","_","_","_","_","_","_","_","_","|","_","_","_","_","_","_","_","_","_","_","_","_","_","_","_","_","|","_","_","_","_","_","_","_","_","_","_","_","_","_","_","_","_","|"],["_","_","_","_","_","_","_","_","_","_","_","_","_","_","_","_","|","_","_","_","_","_","_","_","_","_","_","_","_","_","_","_","_","|","_","_","_","_","_","_","_","_","_","_","_","_","_","_","_","_","|","_","_","_","_","_","_","_","_","_","_","_","_","_","_","_","_","|"]],[["_","_","_","_","_","_","_","_","_","_","_","_","_","_","_","_","|","_","_","_","_","_","_","_","_","_","_","_","_","_","_","_","_","|","_","_","_","_","_","_","_","_","_","_","_","_","_","_","_","_","|","_","_","_","_","_","_","_","_","_","_","_","_","_","_","_","_","|"],["_","_","_","_","_","_","_","_","_","_","_","_","_","_","_","_","|","_","_","_","_","_","_","_","_","_","_","_","_","_","_","_","_","|","_","_","_","_","_","_","_","_","_","_","_","_","_","_","_","_","|","_","_","_","_","_","_","_","_","_","_","_","_","_","_","_","_","|"],["_","_","_","_","_","_","_","_","_","_","_","_","_","_","_","_","|","_","_","_","_","_","_","_","_","_","_","_","_","_","_","_","_","|","_","_","_","_","_","_","_","_","_","_","_","_","_","_","_","_","|","_","_","_","_","_","_","_","_","_","_","_","_","_","_","_","_","|"],["_","_","_","_","_","_","_","_","_","_","_","_","_","_","_","_","|","_","_","_","_","_","_","_","_","_","_","_","_","_","_","_","_","|","_","_","_","_","_","_","_","_","_","_","_","_","_","_","_","_","|","_","_","_","_","_","_","_","_","_","_","_","_","_","_","_","_","|"]]],"numberofstrings":4,"notes":["D","A","E","B"],"capo":0,"stringnotes":["D1","A1","E1","B1"],"comments":["Intro/Verse","Chorus","Verse","Chorus","Verse","Chorus","Bridge "],"timing":[[null,"W",null,null,null,"W",null,null,null,"W",null,null,null,"W",null,null,null,null,"W",null,null,null,"W",null,null,null,"W",null,null,null,"W",null,null,null,null,"W",null,null,null,"W",null,null,null,"W",null,null,null,"W",null,null,null,null,"W",null,null,null,"W",null,null,null,"W",null,null,null,"W",null,null,"W","W"],[null,"W",null,null,null,"W",null,null,"W","W",null,null,null,"W",null,null,null,null,"W",null,null,null,"W",null,null,null,"W",null,null,null,"W"],[],[],[],[],[]],"timingvisible":false,"tabcounter":68,"stave":6,"totalstaves":7,"instrument":"4bass","selectedtuning":"4bass","version":"13"}

Member for

8 years 2 months
Submitted by omac_sloken on Fri, 2020-05-22 15:30