Grunge 2

Chords

01234567891011121314151617181920212223
E
B
G
D
A
E
B
0 1 2 3 4 5 6 7 8 9 10 11 12 13 14 15 16 17 18 19 20 21 22 23
(/) Slide Up  (\) Slide Down  (h) Hammer On  (p) Pull Off  (b) Bend (r) Release (v) Vibrato

Riff

E|-----------------------------------------------------------------------------------------------------
B|-----------------------------------------------------------------------------------------------------
G|-----------------------------------------------------------------------------------------------------
D|--7-----7-----7--------7-----7--7--7--7--7--7--7--6-----6-----6--6--6--6-----6--6--6--6--6--6--6-----
A|--5-----5-----5--------5-----5--5--5--5--5--5--5--4-----4-----4--4--4--4-----4--4--4--4--4--4--4-----
D|--0-----0-----0--5--6--0-----0--0--0--0--0--0--0--0-----0-----0--0--0--0-----0--0--0--0--0--0--0-----

Refrein

E|------------------------------------------------------------------------------------------------
B|------------------------------------------------------------------------------------------------
G|------------------------------------------------------------------------------------------------
D|--10--7--7--7-----7--7--7--4--4--4--7-----7--7--3-----3--3--3--3--3--3--3--3--3--3--3--3--3--3--
A|--10--5--5--5-----5--5--5--4--4--4--7-----7--7--3-----3--3--3--3--3--3--3--3--3--3--3--3--3--3--
D|--10--0--0--0-----0--0--0--4--4--4--7-----7--7--3-----3--3--3--3--3--3--3--3--3--3--3--3--3--3--

							http://www.guitartabcreator.com
Instruments
{"strings":[[[".",".",".",".",".",".",".",".",".",".",".",".",".",".",".",".",".",".",".",".",".",".",".",".",".",".",".",".",".",".",".",".","."],[".",".",".",".",".",".",".",".",".",".",".",".",".",".",".",".",".",".",".",".",".",".",".",".",".",".",".",".",".",".",".",".","."],[".",".",".",".",".",".",".",".",".",".",".",".",".",".",".",".",".",".",".",".",".",".",".",".",".",".",".",".",".",".",".",".","."],[7,".",7,".",7,".",".",7,".",7,7,7,7,7,7,7,6,".",6,".",6,6,6,6,".",6,6,6,6,6,6,6,"."],[5,".",5,".",5,".",".",5,".",5,5,5,5,5,5,5,4,".",4,".",4,4,4,4,".",4,4,4,4,4,4,4,"."],[0,".",0,".",0,5,6,0,".",0,0,0,0,0,0,0,0,".",0,".",0,0,0,0,".",0,0,0,0,0,0,0,"."]],[[".",".",".",".",".",".",".",".",".",".",".",".",".",".",".",".",".",".",".",".",".",".",".",".",".",".",".",".",".",".","."],[".",".",".",".",".",".",".",".",".",".",".",".",".",".",".",".",".",".",".",".",".",".",".",".",".",".",".",".",".",".","."],[".",".",".",".",".",".",".",".",".",".",".",".",".",".",".",".",".",".",".",".",".",".",".",".",".",".",".",".",".",".","."],[10,7,7,7,".",7,7,7,4,4,4,7,".",7,7,3,".",3,3,3,3,3,3,3,3,3,3,3,3,3,3],[10,5,5,5,".",5,5,5,4,4,4,7,".",7,7,3,".",3,3,3,3,3,3,3,3,3,3,3,3,3,3],[10,0,0,0,".",0,0,0,4,4,4,7,".",7,7,3,".",3,3,3,3,3,3,3,3,3,3,3,3,3,3]]],"numberofstrings":6,"notes":["E","B","G","D","A","D"],"capo":0,"stringnotes":["E3","B2","G2","D2","A1","D1"],"comments":["Riff","Refrein"],"timing":[[null,"W",null,"W",null,"W","W","W","W",null,"W","W","W","W","W","W","W","W",null,"W",null,"W","W","W","W","W","W","W","W","W","W","W","W","W"],[null,"W","W","W","W",null,null,"W","W","W","W","W","W",null,"W","W","W",null,"W","W","W","W","W","W","W","W","W","W","W","W","W","W"]],"timingvisible":false,"tabcounter":31,"stave":1,"totalstaves":2,"instrument":"6guitar","selectedtuning":"Drop D","version":"13"}

Member for

2 weeks 3 days
Submitted by Ololovier on Mon, 2020-06-29 05:37