Zombie - Cranberries

01234567891011121314151617181920212223
E
B
G
D
A
E
B
0 1 2 3 4 5 6 7 8 9 10 11 12 13 14 15 16 17 18 19 20 21 22 23
(/) Slide Up  (\) Slide Down  (h) Hammer On  (p) Pull Off  (b) Bend (r) Release (v) Vibrato

Stave 1:

E|--0-----------------------------------------0-----------------------------------------2--2--0-----0--2--0-----0--2--3-----0--2--3-----3--2--------3--2-----
B|-----3--0--3--1--0-----1--0--------------0-----3--0--3--1--0-----1--0-----------------------------------------------------------------------3-----------3--
G|--------------------2--------2--0--2--------------------------2--------2--0--2-----------------------------------------------------------------------------
D|--------------------------------------4-----------------------------------------4--------------------------------------------------------------------------
A|-----------------------------------------------------------------------------------------------------------------------------------------------------------
E|-----------------------------------------------------------------------------------------------------------------------------------------------------------

Stave 2:

E|--3--3--5--2--------3--2--0-----0--2--0-----0--2--0-----0--2--0-----3--2--------3--2--------3--3--5--2-----2--2--3-----0-----2--5--3-----5--3--0--
B|--------------------------------------------------------------------------3-----------3-----------------------------------------------------------
G|--------------------------------------------------------------------------------------------------------------------------------------------------
D|--------------------------------------------------------------------------------------------------------------------------------------------------
A|--------------------------------------------------------------------------------------------------------------------------------------------------
E|--------------------------------------------------------------------------------------------------------------------------------------------------

Stave 3:

E|--0--2--------0--2-----0--2--2-----2-----2-----2--2--2--3-----0-----2--5--3-----5--3--0-----0--2--------0--2-----0--2--2-----2-----2-----2-----0--
B|--------3-----------3-----------------------------------------------------------------------------3-----------3-----------------------------------
G|--------------------------------------------------------------------------------------------------------------------------------------------------
D|--------------------------------------------------------------------------------------------------------------------------------------------------
A|--------------------------------------------------------------------------------------------------------------------------------------------------
E|--------------------------------------------------------------------------------------------------------------------------------------------------

Stave 4:

E|--3--2--------3--2--------3--2--------3--2-----------7--8-----5--7-----3--5-----2--3--2--------------0--------------------------------------
B|--------0--1--------0--1--------0--1--------0--1-----------------------------------------3-----3--------3--0--3--1--0-----1--0--------------
G|-----------------------------------------------------------------------------------------------------------------------2--------2--0--2-----
D|-----------------------------------------------------------------------------------------------------------------------------------------4--
A|--------------------------------------------------------------------------------------------------------------------------------------------
E|--------------------------------------------------------------------------------------------------------------------------------------------

Stave 5:

E|-----0-----------------------------------------2--2--0-----0--2--0-----0--2--3-----0--2--3-----3--2--------3--2-----3--3--5--2--
B|--0-----3--0--3--1--0-----1--0-----------------------------------------------------------------------3-----------3--------------
G|-----------------------2--------2--0--2-----------------------------------------------------------------------------------------
D|-----------------------------------------4--------------------------------------------------------------------------------------
A|--------------------------------------------------------------------------------------------------------------------------------
E|--------------------------------------------------------------------------------------------------------------------------------

Stave 6:

E|--3--2--0-----0--2--0-----0--2--0-----0--2--0-----3--2--------3--2--------3--3--5--2-----2--2--3-----0-----2--5--3--5--3--0-----0--2-----
B|--------------------------------------------------------3-----------3-----------------------------------------------------------------3--
G|-----------------------------------------------------------------------------------------------------------------------------------------
D|-----------------------------------------------------------------------------------------------------------------------------------------
A|-----------------------------------------------------------------------------------------------------------------------------------------
E|-----------------------------------------------------------------------------------------------------------------------------------------

Stave 7:

E|--0--2-----0--2--2--2-----2-----2--2--2--3--0-----2--5--3--5--3--0-----0--2--------0--2--------0--2--2--2--2--2--0--0--0--0--0--0--0--0--2--------------
B|--------3--------------------------------------------------------------------3-----------3--------------------------------------------------3--0--0-----
G|-----------------------------------------------------------------------------------------------------------------------------------------------------2--
D|--------------------------------------------------------------------------------------------------------------------------------------------------------
A|--------------------------------------------------------------------------------------------------------------------------------------------------------
E|--------------------------------------------------------------------------------------------------------------------------------------------------------

							http://www.guitartabcreator.com
Chords

Instruments
{"strings":[[[0,".",".",".",".",".",".",".",".",".",".",".",".",".",0,".",".",".",".",".",".",".",".",".",".",".",".","_",2,2,0,"_",0,2,0,"_",0,2,3,"_",0,2,3,"_",3,2,".","_",3,2,"."],[".",3,0,3,1,0,".",1,0,".",".",".",".",0,".",3,0,3,1,0,".",1,0,".",".",".",".","_",".",".",".","_",".",".",".","_",".",".",".","_",".",".",".","_",".",".",3,"_",".",".",3],[".",".",".",".",".",".",2,".",".",2,0,2,".",".",".",".",".",".",".",".",2,".",".",2,0,2,".","_",".",".",".","_",".",".",".","_",".",".",".","_",".",".",".","_",".",".",".","_",".",".","."],[".",".",".",".",".",".",".",".",".",".",".",".",4,".",".",".",".",".",".",".",".",".",".",".",".",".",4,"_",".",".",".","_",".",".",".","_",".",".",".","_",".",".",".","_",".",".",".","_",".",".","."],[".",".",".",".",".",".",".",".",".",".",".",".",".",".",".",".",".",".",".",".",".",".",".",".",".",".",".","_",".",".",".","_",".",".",".","_",".",".",".","_",".",".",".","_",".",".",".","_",".",".","."],[".",".",".",".",".",".",".",".",".",".",".",".",".",".",".",".",".",".",".",".",".",".",".",".",".",".",".","_",".",".",".","_",".",".",".","_",".",".",".","_",".",".",".","_",".",".",".","_",".",".","."]],[[3,3,5,2,"_","_",3,2,0,"_",0,2,0,"_",0,2,0,"_",0,2,0,"_",3,2,".","_",3,2,".","_",3,3,5,2,"_",2,2,3,"_",0,"_",2,5,3,"_",5,3,0],[".",".",".",".","_","_",".",".",".","_",".",".",".","_",".",".",".","_",".",".",".","_",".",".",3,"_",".",".",3,"_",".",".",".",".","_",".",".",".","_",".","_",".",".",".","_",".",".","."],[".",".",".",".","_","_",".",".",".","_",".",".",".","_",".",".",".","_",".",".",".","_",".",".",".","_",".",".",".","_",".",".",".",".","_",".",".",".","_",".","_",".",".",".","_",".",".","."],[".",".",".",".","_","_",".",".",".","_",".",".",".","_",".",".",".","_",".",".",".","_",".",".",".","_",".",".",".","_",".",".",".",".","_",".",".",".","_",".","_",".",".",".","_",".",".","."],[".",".",".",".","_","_",".",".",".","_",".",".",".","_",".",".",".","_",".",".",".","_",".",".",".","_",".",".",".","_",".",".",".",".","_",".",".",".","_",".","_",".",".",".","_",".",".","."],[".",".",".",".","_","_",".",".",".","_",".",".",".","_",".",".",".","_",".",".",".","_",".",".",".","_",".",".",".","_",".",".",".",".","_",".",".",".","_",".","_",".",".",".","_",".",".","."]],[[0,2,".","_",0,2,".",0,2,2,"_",2,"_",2,"_",2,2,2,3,"_",0,"_",2,5,3,"_",5,3,0,"_",0,2,".","_",0,2,".",0,2,2,"_",2,"_",2,"_",2,"_",0],[".",".",3,"_",".",".",3,".",".",".","_",".","_",".","_",".",".",".",".","_",".","_",".",".",".","_",".",".",".","_",".",".",3,"_",".",".",3,".",".",".","_",".","_",".","_",".","_","."],[".",".",".","_",".",".",".",".",".",".","_",".","_",".","_",".",".",".",".","_",".","_",".",".",".","_",".",".",".","_",".",".",".","_",".",".",".",".",".",".","_",".","_",".","_",".","_","."],[".",".",".","_",".",".",".",".",".",".","_",".","_",".","_",".",".",".",".","_",".","_",".",".",".","_",".",".",".","_",".",".",".","_",".",".",".",".",".",".","_",".","_",".","_",".","_","."],[".",".",".","_",".",".",".",".",".",".","_",".","_",".","_",".",".",".",".","_",".","_",".",".",".","_",".",".",".","_",".",".",".","_",".",".",".",".",".",".","_",".","_",".","_",".","_","."],[".",".",".","_",".",".",".",".",".",".","_",".","_",".","_",".",".",".",".","_",".","_",".",".",".","_",".",".",".","_",".",".",".","_",".",".",".",".",".",".","_",".","_",".","_",".","_","."]],[[3,2,".",".",3,2,".",".",3,2,".",".",3,2,".",".","_",7,8,"_",5,7,"_",3,5,"_",2,3,2,".","_",".","_",0,".",".",".",".",".",".",".",".",".",".",".","."],[".",".",0,1,".",".",0,1,".",".",0,1,".",".",0,1,"_",".",".","_",".",".","_",".",".","_",".",".",".",3,"_",3,"_",".",3,0,3,1,0,".",1,0,".",".",".","."],[".",".",".",".",".",".",".",".",".",".",".",".",".",".",".",".","_",".",".","_",".",".","_",".",".","_",".",".",".",".","_",".","_",".",".",".",".",".",".",2,".",".",2,0,2,"."],[".",".",".",".",".",".",".",".",".",".",".",".",".",".",".",".","_",".",".","_",".",".","_",".",".","_",".",".",".",".","_",".","_",".",".",".",".",".",".",".",".",".",".",".",".",4],[".",".",".",".",".",".",".",".",".",".",".",".",".",".",".",".","_",".",".","_",".",".","_",".",".","_",".",".",".",".","_",".","_",".",".",".",".",".",".",".",".",".",".",".",".","."],[".",".",".",".",".",".",".",".",".",".",".",".",".",".",".",".","_",".",".","_",".",".","_",".",".","_",".",".",".",".","_",".","_",".",".",".",".",".",".",".",".",".",".",".",".","."]],[[".",0,".",".",".",".",".",".",".",".",".",".",".",".","_",2,2,0,"_",0,2,0,"_",0,2,3,"_",0,2,3,"_",3,2,".","_",3,2,".",3,3,5,2],[0,".",3,0,3,1,0,".",1,0,".",".",".",".","_",".",".",".","_",".",".",".","_",".",".",".","_",".",".",".","_",".",".",3,"_",".",".",3,".",".",".","."],[".",".",".",".",".",".",".",2,".",".",2,0,2,".","_",".",".",".","_",".",".",".","_",".",".",".","_",".",".",".","_",".",".",".","_",".",".",".",".",".",".","."],[".",".",".",".",".",".",".",".",".",".",".",".",".",4,"_",".",".",".","_",".",".",".","_",".",".",".","_",".",".",".","_",".",".",".","_",".",".",".",".",".",".","."],[".",".",".",".",".",".",".",".",".",".",".",".",".",".","_",".",".",".","_",".",".",".","_",".",".",".","_",".",".",".","_",".",".",".","_",".",".",".",".",".",".","."],[".",".",".",".",".",".",".",".",".",".",".",".",".",".","_",".",".",".","_",".",".",".","_",".",".",".","_",".",".",".","_",".",".",".","_",".",".",".",".",".",".","."]],[[3,2,0,"_",0,2,0,"_",0,2,0,"_",0,2,0,"_",3,2,".","_",3,2,".","_",3,3,5,2,"_",2,2,3,"_",0,"_",2,5,3,5,3,0,"_",0,2,"."],[".",".",".","_",".",".",".","_",".",".",".","_",".",".",".","_",".",".",3,"_",".",".",3,"_",".",".",".",".","_",".",".",".","_",".","_",".",".",".",".",".",".","_",".",".",3],[".",".",".","_",".",".",".","_",".",".",".","_",".",".",".","_",".",".",".","_",".",".",".","_",".",".",".",".","_",".",".",".","_",".","_",".",".",".",".",".",".","_",".",".","."],[".",".",".","_",".",".",".","_",".",".",".","_",".",".",".","_",".",".",".","_",".",".",".","_",".",".",".",".","_",".",".",".","_",".","_",".",".",".",".",".",".","_",".",".","."],[".",".",".","_",".",".",".","_",".",".",".","_",".",".",".","_",".",".",".","_",".",".",".","_",".",".",".",".","_",".",".",".","_",".","_",".",".",".",".",".",".","_",".",".","."],[".",".",".","_",".",".",".","_",".",".",".","_",".",".",".","_",".",".",".","_",".",".",".","_",".",".",".",".","_",".",".",".","_",".","_",".",".",".",".",".",".","_",".",".","."]],[[0,2,".",0,2,2,2,"_",2,"_",2,2,2,3,0,"_",2,5,3,5,3,0,"_",0,2,".","_",0,2,".","_",0,2,2,2,2,2,0,0,0,0,0,0,0,0,2,".",".",".","."],[".",".",3,".",".",".",".","_",".","_",".",".",".",".",".","_",".",".",".",".",".",".","_",".",".",3,"_",".",".",3,"_",".",".",".",".",".",".",".",".",".",".",".",".",".",".",".",3,0,0,"."],[".",".",".",".",".",".",".","_",".","_",".",".",".",".",".","_",".",".",".",".",".",".","_",".",".",".","_",".",".",".","_",".",".",".",".",".",".",".",".",".",".",".",".",".",".",".",".",".",".",2],[".",".",".",".",".",".",".","_",".","_",".",".",".",".",".","_",".",".",".",".",".",".","_",".",".",".","_",".",".",".","_",".",".",".",".",".",".",".",".",".",".",".",".",".",".",".",".",".",".","."],[".",".",".",".",".",".",".","_",".","_",".",".",".",".",".","_",".",".",".",".",".",".","_",".",".",".","_",".",".",".","_",".",".",".",".",".",".",".",".",".",".",".",".",".",".",".",".",".",".","."],[".",".",".",".",".",".",".","_",".","_",".",".",".",".",".","_",".",".",".",".",".",".","_",".",".",".","_",".",".",".","_",".",".",".",".",".",".",".",".",".",".",".",".",".",".",".",".",".",".","."]]],"numberofstrings":6,"notes":["E","B","G","D","A","E","B"],"capo":0,"stringnotes":["E4","B3","G3","D3","A2","E2"],"comments":["Stave 1:","Stave 2:","Stave 3:","Stave 4:","Stave 5:","Stave 6:","Stave 7:"],"timing":[[null,null,null,null,null,null,null,null,null,null,null,null,null,null,null,null,null,null,null,null,null,null,null,null,null,null,null,null,null,null,null,null,null,null,null,null,null,null,null,null,null,null,null,null,null,null,null,null,null,null,null],[],[null,null,null,null,null,null,null,null,null,null,null,null,null,null,null,null,null,null,null,null,null,null,null,null,null,null,null,null,null,null,null,null,null,null,null,null,null,"W","W","W","W","W","W","W","W","W","W","W"],["W","W","W","W","W","W","W","W","W","W","W","W","W","W","W","W","W","W","W","W","W","W","W","W","W","W","W","W","W","W","W","W","W","W","W","W","W","W","W","W","W","W","W","W","W","W"],["W","W","W","W","W","W","W","W","W","W","W","W","W","W","W","W","W","W","W","W","W","W","W","W","W","W","W","W","W","W","W","W","W","W","W","W","W","W","W","W","W","W"],["W","W","W","W","W","W","W","W","W","W","W","W","W","W","W","W","W","W","W","W","W","W","W","W","W","W","W","W","W","W","W","W","W","W","W","W","W","W","W","W","W","W","W","W","W"],["W","W","W","W","W","W","W","W","W","W","W","W","W","W","W","W","W","W","W","W","W","W","W","W","W","W","W","W","W","W","W","W","W","W","W","W","W","W","W","W","W","W","W","W","W","W","W","W","W","W"]],"timingvisible":false,"tabcounter":42,"stave":4,"totalstaves":7,"instrument":"6guitar","selectedtuning":"6_standard","version":"13"}

Member for

3 months 2 weeks
Picture
Submitted by oliversr on Mon, 2022-01-10 12:36