Metro Last Light menu theme

01234567891011121314151617181920212223
E
B
G
D
A
E
B
0 1 2 3 4 5 6 7 8 9 10 11 12 13 14 15 16 17 18 19 20 21 22 23
(/) Slide Up  (\) Slide Down  (h) Hammer On  (p) Pull Off  (b) Bend (r) Release (v) Vibrato

Stave 1:

E|---------------------------------------------------------------------------------
B|---------------------------------------------------------------------------------
G|---------------------------------------------------------------------------------
D|---2-2-5-------4-------2-------1-----2-2-5-----7-5-4-----5-4-2-----4-1-----2-2-5-
A|-------------3-------2-------0---------------------------------------------------
E|-0---------5-------3-------2-------0---------5---------3---------2-------0-------

Stave 2:

E|-----------------------------------------------------------------------------------------
B|-----------------------------------------------------------------------------------------
G|---4-----5-4-5---------------------------------------------------------------------------
D|-----------------4---4-7-----5-4---5---4-5-2-----2-2-5-------4-------2-------1-----2-2-5-
A|-----0---------2---------0---------------------------------3-------2-------0-------------
E|-3-------------------------------0-------------0---------5-------3-------2-------0-------

Stave 3:

E|-----------------------------------------------------------------------------------
B|-----------------------------------------------------------------------------------
G|-----------------------------------------4-----5-4-5-------------------------------
D|---7-5-4-----5-4-2-----4-1-----2-2-5-------------------4---4-7-----5-4---5---4-5-2-
A|-------------------------------------------0---------2---------0-------------------
E|-5---------3---------2-------0---------3-------------------------------0-----------

Stave 4:

E|-----------------------------------------
B|-----------------------------------------
G|-----------------------------------------
D|---2-2-5-------4-------2-------1-------2-
A|-------------3-------2-------0-------2---
E|-0---------5-------3-------2-------0-----

							http://www.guitartabcreator.com
Chords

Instruments
{"strings":[[[".",".",".",".","_",".",".",".","_",".",".",".","_",".",".",".","_",".",".",".",".","_",".",".",".",".","_",".",".",".",".","_",".",".",".","_",".",".",".","."],[".",".",".",".","_",".",".",".","_",".",".",".","_",".",".",".","_",".",".",".",".","_",".",".",".",".","_",".",".",".",".","_",".",".",".","_",".",".",".","."],[".",".",".",".","_",".",".",".","_",".",".",".","_",".",".",".","_",".",".",".",".","_",".",".",".",".","_",".",".",".",".","_",".",".",".","_",".",".",".","."],[".",2,2,5,"_",".",".",4,"_",".",".",2,"_",".",".",1,"_",".",2,2,5,"_",".",7,5,4,"_",".",5,4,2,"_",".",4,1,"_",".",2,2,5],[".",".",".",".","_",".",3,".","_",".",2,".","_",".",0,".","_",".",".",".",".","_",".",".",".",".","_",".",".",".",".","_",".",".",".","_",".",".",".","."],[0,".",".",".","_",5,".",".","_",3,".",".","_",2,".",".","_",0,".",".",".","_",5,".",".",".","_",3,".",".",".","_",2,".",".","_",0,".",".","."]],[[".",".",".","_",".",".",".",".",".","_",".",".",".","_",".",".",".",".","_",".",".",".","_",".",".",".",".","_",".",".",".","_",".",".",".","_",".",".",".","_",".",".",".","."],[".",".",".","_",".",".",".",".",".","_",".",".",".","_",".",".",".",".","_",".",".",".","_",".",".",".",".","_",".",".",".","_",".",".",".","_",".",".",".","_",".",".",".","."],[".",4,".","_",5,4,5,".",".","_",".",".",".","_",".",".",".",".","_",".",".",".","_",".",".",".",".","_",".",".",".","_",".",".",".","_",".",".",".","_",".",".",".","."],[".",".",".","_",".",".",".",".",4,"_",4,7,".","_",5,4,".",5,"_",4,5,2,"_",".",2,2,5,"_",".",".",4,"_",".",".",2,"_",".",".",1,"_",".",2,2,5],[".",".",0,"_",".",".",".",2,".","_",".",".",0,"_",".",".",".",".","_",".",".",".","_",".",".",".",".","_",".",3,".","_",".",2,".","_",".",0,".","_",".",".",".","."],[3,".",".","_",".",".",".",".",".","_",".",".",".","_",".",".",0,".","_",".",".",".","_",0,".",".",".","_",5,".",".","_",3,".",".","_",2,".",".","_",0,".",".","."]],[[".",".",".",".","_",".",".",".",".","_",".",".",".","_",".",".",".",".","_",".",".",".","_",".",".",".",".",".","_",".",".",".","_",".",".",".",".","_",".",".","."],[".",".",".",".","_",".",".",".",".","_",".",".",".","_",".",".",".",".","_",".",".",".","_",".",".",".",".",".","_",".",".",".","_",".",".",".",".","_",".",".","."],[".",".",".",".","_",".",".",".",".","_",".",".",".","_",".",".",".",".","_",".",4,".","_",5,4,5,".",".","_",".",".",".","_",".",".",".",".","_",".",".","."],[".",7,5,4,"_",".",5,4,2,"_",".",4,1,"_",".",2,2,5,"_",".",".",".","_",".",".",".",".",4,"_",4,7,".","_",5,4,".",5,"_",4,5,2],[".",".",".",".","_",".",".",".",".","_",".",".",".","_",".",".",".",".","_",".",".",0,"_",".",".",".",2,".","_",".",".",0,"_",".",".",".",".","_",".",".","."],[5,".",".",".","_",3,".",".",".","_",2,".",".","_",0,".",".",".","_",3,".",".","_",".",".",".",".",".","_",".",".",".","_",".",".",0,".","_",".",".","."]],[[".",".",".",".","_",".",".",".","_",".",".",".","_",".",".",".","_",".",".","."],[".",".",".",".","_",".",".",".","_",".",".",".","_",".",".",".","_",".",".","."],[".",".",".",".","_",".",".",".","_",".",".",".","_",".",".",".","_",".",".","."],[".",2,2,5,"_",".",".",4,"_",".",".",2,"_",".",".",1,"_",".",".",2],[".",".",".",".","_",".",3,".","_",".",2,".","_",".",0,".","_",".",2,"."],[0,".",".",".","_",5,".",".","_",3,".",".","_",2,".",".","_",0,".","."]]],"numberofstrings":6,"notes":["E","B","G","D","A","E","B"],"capo":0,"stringnotes":["E4","B3","G3","D3","A2","E2"],"comments":["Stave 1:","Stave 2:","Stave 3:","Stave 4:"],"timing":[["W","W","W","W","W","W","W","W","W","W","W","W","W","W","W","W","W","W","W","W","W","W","W","W","W","W","W","W","W","W","W","W","W","W","W","W","W","W","W","W"],["W","W","W","W","W","W","W","W","W","W","W","W","W","W","W","W","W","W","W","W","W","W","W","W","W","W","W","W","W","W","W","W","W","W","W","W","W","W","W","W","W","W","W","W"],["W","W","W","W","W","W","W","W","W","W","W","W","W","W","W","W","W","W","W","W","W","W","W","W","W","W","W","W","W","W","W","W","W","W","W","W","W","W","W","W","W"],["W","W","W","W","W","W","W","W","W","W","W","W","W","W","W","W","W","W","W","W"]],"timingvisible":false,"tabcounter":20,"stave":3,"totalstaves":4,"instrument":"6guitar","selectedtuning":"6_standard","version":"13"}

Member for

3 months 2 weeks
Picture
Submitted by oliversr on Fri, 2022-01-14 02:56