Sound will begin in 5 seconds

Pathfinder

Chords
01234567891011121314151617181920212223
E
B
G
D
A
E
B
0 1 2 3 4 5 6 7 8 9 10 11 12 13 14 15 16 17 18 19 20 21 22 23
Song Science #1: How Pros Use 6 Chords to Write Hit Songs
(/) Slide Up  (\) Slide Down  (h) Hammer On  (p) Pull Off  (b) Bend (r) Release (v) Vibrato

Stave 1:

E|--------------------------------------------------------------------------------------------------
B|--------------------------------------------------------------------------------------------------
G|--------2-----2-----------------5-----5-----------------------------------------------------------
D|-----2-----2-----2-----------5-----5-----5--------------5-----5-----------------3-----3-----------
A|--0-----------------0--2--3-----------------3--5-----5-----5-----5-----------3-----3-----3--------
D|--------------------------------------------------5-----------------5--7--3-----------------3--5--

Stave 2:

E|--------------------------------------------------------------------------------------------------
B|--------------------------------------------------------------------------------------------------
G|--------------------------------------------------------------------------------------------------
D|--2--------2--------2-----5--------5--------5-----------------------------------------------------
A|--0--0--0--0--0--0--0--0--3--3--3--3--3--3--3--3--5--------5--------5-----3--------3--------3-----
D|--------------------------------------------------5--5--5--5--5--5--5--5--3--3--3--3--3--3--3--3--

Stave 3:

E|--------------------------------------------------------------------------------------------------
B|--------------------------------------------------------------------------------------------------
G|--------------------------------------------------------------------------------------------------
D|-----------------------------------------------------2--2--2--2--2--2--2--2--0--------------------
A|--0--3--3--3--3--3--3--3--2--5--5--5--5--5--5--5--3-----------------------------3--2--3--2--------
D|--------------------------------------------------------------------------------------------7--5--

Stave 4:

E|--------------------------------------------------------------------------------------------------
B|--------------------------------------------------------------------------------------------------
G|--------------------------------------------------------------------------------------------------
D|--2--------------------4--------------------------5--------------------------4--------------------
A|--0--------------------2--------------------------3--------------------------2--------------------
D|--------------------------------------------------------------------------------------------------

Stave 5:

E|-------------------------------------------------------------------------------------------------------------
B|-------------------------------------------------------------------------------------------------------------
G|------------------------------------7--7--7--7--7--7--7------9--9--9--9--9--9--9--9--7-----------------------
D|--7--10--10--10--10--10--10--10--9-----------------------10-----------------------------10--9--10--9--7------
A|---------------------------------------------------------------------------------------------------------10--
D|-------------------------------------------------------------------------------------------------------------

Stave 6:

E|--------------------------------------------------------------------------------------------------------
B|--------------------------------------------------------------------------------------------------------
G|--------------------------------------------------------------------------------------------------------
D|--2-----------2--------5-----4--7--------------7--------------------------------------------------------
A|--0-----------0--------3-----2--5--------------5-----3-----------3--------5-----------5--------3--2--3--
D|-----------------------------------------------------3-----------3--------5-----------5--------3--2--3--

Stave 7:

E|-----------------------
B|-----------------------
G|-----------------------
D|--2--------------------
A|--0--0--0--5--------3--
D|-----------5--5--5--3--

Stave 8:

E|--------------------------------------------------------------------------------------------------------------------
B|--------------------------------------------------------------------------------------------------------------------
G|--------5--4--7--7--9--9--9--12--12--12--14--14--14--17--17--17--17--14-----17b------------------14--17p14------14--
D|--7--7------------------------------------------------------------------------------------------------------17------
A|--------------------------------------------------------------------------------------------------------------------
D|--------------------------------------------------------------------------------------------------------------------

Stave 9:

E|--------------------------------------------------------------------------------------------------------------------------------20--17--15--17--
B|---------------------------------------------------------------------------------------------------------------------15/17--20------------------
G|-----------------------------------------------------------------------------------------------------14--17--14--17-----------------------------
D|--17--14--17--14------14h17p14------14-----------------------------------------------14--17--14--17---------------------------------------------
A|------------------17------------17------15/17------------------------15--17--15--17-------------------------------------------------------------
D|-----------------------------------------------19--------19--17--19-----------------------------------------------------------------------------

http://www.guitartabcreator.com
Guitar Tab Creator is intended to store guitar tab created through the tool. It currently does not support in-line text editing. Any text you place in here will be lost. If you need to comment on your tab, please use the "Tab Notes" section located below.