Space Song by Beach House tabs (unfinished)

Chords

01234567891011121314151617181920212223
E
B
G
D
A
E
B
0 1 2 3 4 5 6 7 8 9 10 11 12 13 14 15 16 17 18 19 20 21 22 23
(/) Slide Up  (\) Slide Down  (h) Hammer On  (p) Pull Off  (b) Bend (r) Release (v) Vibrato

Stave 1:

E|--3--4--3--1--3--1-----1--3--4--3--1--3--1--------3--4--3--1--
B|--------------------4-----------------------4--3--------------
G|--------------------------------------------------------------
D|--------------------------------------------------------------
A|--------------------------------------------------------------
E|--------------------------------------------------------------

Stave 2:

E|--3--1-----1--3--4--3--1--3--1-----------------------------------3--
B|--------4-----------------------4--3--4--4--4--3--1-----4--3--1-----
G|-----------------------------------------------------0--------------
D|--------------------------------------------------------------------
A|--------------------------------------------------------------------
E|--------------------------------------------------------------------

							http://www.guitartabcreator.com
Instruments
{"strings":[[[3,4,3,1,3,1,".",1,3,4,3,1,3,1,".",".",3,4,3,1],[".",".",".",".",".",".",4,".",".",".",".",".",".",".",4,3,".",".",".","."],[".",".",".",".",".",".",".",".",".",".",".",".",".",".",".",".",".",".",".","."],[".",".",".",".",".",".",".",".",".",".",".",".",".",".",".",".",".",".",".","."],[".",".",".",".",".",".",".",".",".",".",".",".",".",".",".",".",".",".",".","."],[".",".",".",".",".",".",".",".",".",".",".",".",".",".",".",".",".",".",".","."]],[[3,1,".",1,3,4,3,1,3,1,".",".",".",".",".",".",".",".",".",".",".",3],[".",".",4,".",".",".",".",".",".",".",4,3,4,4,4,3,1,".",4,3,1,"."],[".",".",".",".",".",".",".",".",".",".",".",".",".",".",".",".",".",0,".",".",".","."],[".",".",".",".",".",".",".",".",".",".",".",".",".",".",".",".",".",".",".",".",".","."],[".",".",".",".",".",".",".",".",".",".",".",".",".",".",".",".",".",".",".",".",".","."],[".",".",".",".",".",".",".",".",".",".",".",".",".",".",".",".",".",".",".",".",".","."]]],"numberofstrings":6,"notes":["E","B","G","D","A","E","B"],"capo":0,"stringnotes":["E4","B3","G3","D3","A2","E2"],"comments":["Stave 1:","Stave 2:"],"timing":[["W","W","W","W","W","W","W","W","W","W","W","W","W","W","W","W","W","W","W","W"],["W","W","W","W","W","W","W","W","W","W","W","W","W","W","W","W","W","W","W","W","W","W"]],"timingvisible":false,"tabcounter":22,"stave":1,"totalstaves":2,"instrument":"6guitar","selectedtuning":"6_standard","version":"13"}

Member for

3 days 21 hours
Submitted by oikiwi on Thu, 2020-10-15 14:59