Sound will begin in 5 seconds

LOTR The Concerning Hobbit

Chords
01234567891011121314151617181920212223
E
B
G
D
A
E
B
0 1 2 3 4 5 6 7 8 9 10 11 12 13 14 15 16 17 18 19 20 21 22 23
Song Science #1: How Pros Use 6 Chords to Write Hit Songs
(/) Slide Up  (\) Slide Down  (h) Hammer On  (p) Pull Off  (b) Bend (r) Release (v) Vibrato

Stave 1:

G|------------------------------
D|----------12--------------12--
A|------12------12------12------
E|--10--------------10----------

Stave 2:

G|---------11--14--11--9h11p9--11--14--16--19--18--14--11--12--11------
D|--12h14----------------------------------------------------------14--
A|---------------------------------------------------------------------
E|---------------------------------------------------------------------

Stave 3:

G|---------11--14--11--9h11p9------11--14--16--14--11---------
D|--12h14----------------------12----------------------12/14--
A|------------------------------------------------------------
E|------------------------------------------------------------

Stave 4:

G|------------------------------
D|----------12--------------12--
A|------12------12------12------
E|--10--------------10----------

Stave 5:

G|---------11--11--11--14---------------------------------------------
D|--12h14------------------14--12--14--7--9--11--11--12--9------------
A|----------------------------------------------------------9--12--7--
E|--------------------------------------------------------------------

Stave 6:

G|-----------------11--11--14--11------------------------------------------------------
D|------11--12h14------------------14--12--14--11--9-----9h11--12--11--9---------------
A|--12------------------------------------------------9-------------------9--10--9--7--
E|-------------------------------------------------------------------------------------

Stave 7:

G|---------------------------11--11--11--9h11--13--13--13--13--11h13--15--15--15--15--
D|--------------------12h14-------------------------------------------16--16--16--16--
A|--5h7--9h11--12--7------------------------------------------------------------------
E|------------------------------------------------------------------------------------

Stave 8:

G|---------11--14--11--9h11p9------11--14--16--19--18--14--11--12--11------
D|--12h14----------------------12--0-----------------------------------14--
A|-------------------------------------------------------------------------
E|-------------------------------------------------------------------------

Stave 9:

G|---------11--14--11\9--7--9--7--11--14--14/16--14--11----------------
D|--12h14-------------------------0----------------------12/14--11/12--
A|---------------------------------------------------------------------
E|---------------------------------------------------------------------

http://www.guitartabcreator.com
Guitar Tab Creator is intended to store guitar tab created through the tool. It currently does not support in-line text editing. Any text you place in here will be lost. If you need to comment on your tab, please use the "Tab Notes" section located below.