Sound will begin in 5 seconds

Ejercicios

Chords
01234567891011121314151617181920212223
E
B
G
D
A
E
B
0 1 2 3 4 5 6 7 8 9 10 11 12 13 14 15 16 17 18 19 20 21 22 23
(/) Slide Up  (\) Slide Down  (h) Hammer On  (p) Pull Off  (b) Bend (r) Release (v) Vibrato

Ejercicio 1:

E|-----------------------5--|--9-----------------------|--
B|-----------------5--------|--------5-----------------|--
G|-----------6--------6-----|-----6--------6-----------|--
D|-----7--------7-----------|-----------7--------7-----|--
A|--------7-----------------|-----------------7--------|--
E|--5-----------------------|-----------------------5--|--

Ejercicio 2:

E|--------------------------------------------------|--
B|--------------------------------------------------|--
G|--------------------------------------5--6--7--8--|--
D|--------------------------5--6--7--8--------------|--
A|--------------5--6--7--8--------------------------|--
E|--5--6--7--8--------------------------------------|--



E|----------------------------------------7--8--9--10--|--
B|---------------------------7--8--9--10---------------|--
G|--9--8--7--6--7--8--9--10----------------------------|--
D|-----------------------------------------------------|--
A|-----------------------------------------------------|--
E|-----------------------------------------------------|--



E|--11--10--9--8--------------------------------------------|--
B|----------------11--10--9--8------------------------------|--
G|------------------------------11--10--9--8----------------|--
D|--------------------------------------------11--10--9--8--|--
A|----------------------------------------------------------|--
E|----------------------------------------------------------|--



E|---------------------------------------------------|--
B|---------------------------------------------------|--
G|---------------------------------------------------|--
D|--7--8--9--10--9--8--7--6--------------------------|--
A|---------------------------9--8--7--6--------------|--
E|---------------------------------------9--8--7--6--|--

Ejercicio 3:

E|-----------------------------------------2--3--5--|--
B|-----------------------------------3--5-----------|--
G|--------------------------2--4--5-----------------|--
D|-----------------2--4--5--------------------------|--
A|--------2--3--5-----------------------------------|--
E|--3--5--------------------------------------------|--

Ejercicio 4:

E|--1--2--3--4--------------------------------------------------------------|--
B|--------------1--2--3--4--------------------------------------------------|--
G|--------------------------1--2--3--4--------------------------------------|--
D|--------------------------------------1--2--3--4--------------------------|--
A|--------------------------------------------------1--2--3--4--------------|--
E|--------------------------------------------------------------1--2--3--4--|--



E|--------------------------------------------------------------4--3--2--1--|--
B|--------------------------------------------------4--3--2--1--------------|--
G|--------------------------------------4--3--2--1--------------------------|--
D|--------------------------4--3--2--1--------------------------------------|--
A|--------------4--3--2--1--------------------------------------------------|--
E|--4--3--2--1--------------------------------------------------------------|--

Ejercicio 5:

E|-------------------------------------------------------------------7--8--9--10--|--
B|------------------------------------------------------7--8--9--10---------------|--
G|-----------------------------------------7--8--9--10----------------------------|--
D|----------------------------7--8--9--10-----------------------------------------|--
A|---------------7--8--9--10------------------------------------------------------|--
E|--7--8--9--10-------------------------------------------------------------------|--



E|-------------------------------------------------------------------|--
B|--10--9--8--7------------------------------------------------------|--
G|---------------10--9--8--7-----------------------------------------|--
D|----------------------------10--9--8--7----------------------------|--
A|-----------------------------------------10--9--8--7---------------|--
E|------------------------------------------------------10--9--8--7--|--

Ejercicio 6:

E|--------------------------|--------------------------|--------------------------|--
B|-----------0-----------0--|--------------------------|-----------0-----------3--|--
G|--------5-----5-----5-----|-----------0-----------0--|--------5-----5-----5-----|--
D|-----2-----------3--------|--------0-----------2-----|-----2-----------3--------|--
A|--0-----------------------|-----2-----------2--------|--0-----------------------|--
E|--------------------------|--3-----------0-----------|--------------------------|--



E|-----------0--------------|--------------------------|--------------------------|--
B|--------------------------|-----------0-----------0--|--------------------------|--
G|--------0-----------0-----|--------5-----5-----5-----|-----------0-----------2--|--
D|-----0-----------5--------|-----2-----------3--------|--------0-----------2-----|--
A|--------------3--------2--|--0-----------------------|-----2-----------2--------|--
E|--3-----------------------|--------------------------|--3-----------0-----------|--



E|--------------------------|-----------------------|-----|----------------------------|--
B|-----------3--------------|-----------------------|-----|----------------------------|--
G|--------2-----2--------2--|-----------2--------2--|-----|-------------0-----------0--|--
D|-----0-----------0--------|--------0-----0--------|-----|----------5-----5-----5-----|--
A|--------------------------|-----3-----------3-----|--2--|-----0h2-----------3--------|--
E|--2-----------------2-----|--1--------------------|-----|--0-------------------------|--



E|--------------0--|--------------|--
B|--3--------------|--------------|--
G|--------0--0-----|--------------|--
D|-----------------|--------2-----|--
A|-----------------|-----2--------|--
E|-----3-----------|--0--------3--|--

Ejercicio 7:

E|-----------0--|-----------2--|-----------3--|--
B|--------3-----|--------3-----|--------3-----|--
G|-----2--------|-----2--------|-----2--------|--
D|--0-----------|--0-----------|--0-----------|--
A|--------------|--------------|--------------|--
E|--------------|--------------|--------------|--

Stave 16:

E|--7------------------7--|--7------------------8--7--|--
B|-----8------------8-----|-----8------------8--------|--
G|--------9------9--------|--------9------9-----------|--
D|-----------10-----------|-----------10--------------|--
A|------------------------|---------------------------|--
E|------------------------|---------------------------|--

Stave 17:

E|--7------------------8--7--12----------------------13--12--|--
B|-----8------------8------------13--------------13----------|--
G|--------9------9-------------------14------14--------------|--
D|-----------10--------------------------15------------------|--
A|-----------------------------------------------------------|--
E|-----------------------------------------------------------|--

Stave 18:

E|--7-------------------------8--7--12------------------------------13--12--|--
B|-----8-------------------8------------13----------------------13----------|--
G|--------9-------------9-------------------14--------------14--------------|--
D|-----------10--9--10--------------------------15--14--15------------------|--
A|--------------------------------------------------------------------------|--
E|--------------------------------------------------------------------------|--

Ultimo ejercicio:

E|--0--0--
B|--1--4--
G|--0--0--
D|--2--2--
A|--3--1--
E|--0--0--

http://www.guitartabcreator.com
Guitar Tab Creator is intended to store guitar tab created through the tool. It currently does not support in-line text editing. Any text you place in here will be lost. If you need to comment on your tab, please use the "Tab Notes" section located below.