Sound will begin in 5 seconds

A Thousand Years

01234567891011121314151617181920212223
E
B
G
D
A
E
B
0 1 2 3 4 5 6 7 8 9 10 11 12 13 14 15 16 17 18 19 20 21 22 23
Song Science #1: How Pros Use 6 Chords to Write Hit Songs
(/) Slide Up  (\) Slide Down  (h) Hammer On  (p) Pull Off  (b) Bend (r) Release (v) Vibrato

Stave 1:

E|-------------------------------------------------------
B|-------------------------------------------------------
G|----------------------10-8-7--------10-8-7-------------
D|-8-8-8-10-12-10-8-8-8--------8-------------10-12-7-8-8-
A|-------------------------------8-10--------------------
E|-------------------------------------------------------

Stave 2:

E|----------------
B|-8-10b9-10-8-10-
G|----------------
D|----------------
A|----------------
E|----------------

Stave 3:

E|----------------------------------------------------------------------------
B|----------------------------------------------------------------------------
G|-7-10-7-7-10-7/12-10------7-10-7-7-10-7/12-10-----------8-7----------8-7----
D|---------------------10-8---------------------10-8-8-10-----8-8-10-8-----10-
A|----------------------------------------------------------------------------
E|----------------------------------------------------------------------------

Stave 4:

E|-------------------------------------------------------------------------------------------
B|-15-18-15-15-18-15b18-------15-18-15-15-18-15b18----------------16-15-------------16-15----
G|----------------------17-15----------------------17-15-15-17-15-------15-15-17-15-------17-
D|-------------------------------------------------------------------------------------------
A|-------------------------------------------------------------------------------------------
E|-------------------------------------------------------------------------------------------

Stave 5:

E|-15-17b17-17-15-17-
B|-------------------
G|-------------------
D|-------------------
A|-------------------
E|-------------------

http://www.guitartabcreator.com
Guitar Tab Creator is intended to store guitar tab created through the tool. It currently does not support in-line text editing. Any text you place in here will be lost. If you need to comment on your tab, please use the "Tab Notes" section located below.