UMC - Wild

Chords

01234567891011121314151617181920212223
E
B
G
D
A
E
B
0 1 2 3 4 5 6 7 8 9 10 11 12 13 14 15 16 17 18 19 20 21 22 23
(/) Slide Up  (\) Slide Down  (h) Hammer On  (p) Pull Off  (b) Bend (r) Release (v) Vibrato

Stave 1:

E|-----------------------------------------------------------------------------------
B|-----------------------------------------------------------------------------------
G|-----------------------------------------------------------------------------------
D|-----------------------------------------------------------------------------------
A|-----------------------------------------------------------------------------------
E|--------------------------6--5--3-----------------------------------6--5--3--------
A|--0--0--0-----0--0--0--------------3--1-----0--0--0-----0--0--0--------------3--1--

Stave 2:

E|---------------------------------------------------------------------------------------------------------------------------------------
B|---------------------------------------------------------------------------------------------------------------------------------------
G|---------------------------------------------------------------------------------------------------------------------------------------
D|-----------------------------------------------------------------------------------------------------------12--12--12--12--12--12--12--
A|-----------------------------------------------------------------3--3--3--3--3--3--3--7--7--7--7--7--7--7------------------------------
E|--5--5--5--5--5--5--5--3--3--3--3--3--3--3--1--1--1--1--1--1--1------------------------------------------------------------------------
A|---------------------------------------------------------------------------------------------------------------------------------------

Stave 3:

E|---------------------------------------------------------------------------------------
B|---------------------------------------------------------------------------------------
G|---------------------------------------------------------------------------------------
D|--7--------------------5--5-----3------------------------------------------------------
A|--7-----7--5-----------5--5-----3--------3--------------------7---------------------0--
E|--5-----------8--5-----3--3-----1--------3-----------3--5-----7------------7--8-----0--
A|-----------------------------------------3-----3--5-----------7-----7--10-----------0--

Stave 4:

E|-----------------------------------------------------
B|-----------------------------------------------------
G|-----------------------------------------------------
D|-----------------------------------------------------
A|-----------------------4-----------3-----------1-----
E|-----------6--5-----------------3-----3-----1-----1--
A|--0--1--4--------0--4--------3-----------1-----------

Stave 5:

E|-----------------------------------------------------------
B|-----------------------------------------------------------
G|-----------------------------------------------------------
D|-----------------------------------------------------------
A|-----------------------------------------------------------
E|--5-----------------------------5--------------------7-----
A|-----7--8--5-----4--5--7--5--------7--8--5-----4--7-----5--

Stave 6:

E|-------------------------------------------------------------------------------------------------------
B|-------------------------------------------------------------------------------------------------------
G|-------------------------------------------------------------------------------------------------------
D|-------------------------------------------------------------------------------------------------------
A|--------------------------------------4--4--4--4-----------------------------------------------11--11--
E|-------------------------------------------------------------------------------------------------------
A|--0--0--0--0-----1--1--3--4--4--4--4-----------------7--7--8--8--8--8--10--10--11--11--14--14----------

Stave 7:

E|-----------------------------------------------------------------------------------------------
B|-----------------------------------------------------------------------------------------------
G|-----------------------------------------------------------------------------------------------
D|--------------------------------------------------------------------7--6--5-----5--------------
A|-----------------------------------------------------------------------------7-----7--6--5-----
E|--------------------------------------------------------------------------------------------5--
A|--0--0--0--0-----0--0-----0-----------0--0--0--0-----0--0-----0--------------------------------

							http://www.guitartabcreator.com
Instruments
{"strings":[[[".",".",".",".",".",".",".",".",".",".",".",".",".",".",".",".",".",".",".",".",".",".",".",".",".",".","."],[".",".",".",".",".",".",".",".",".",".",".",".",".",".",".",".",".",".",".",".",".",".",".",".",".",".","."],[".",".",".",".",".",".",".",".",".",".",".",".",".",".",".",".",".",".",".",".",".",".",".",".",".",".","."],[".",".",".",".",".",".",".",".",".",".",".",".",".",".",".",".",".",".",".",".",".",".",".",".",".",".","."],[".",".",".",".",".",".",".",".",".",".",".",".",".",".",".",".",".",".",".",".",".",".",".",".",".",".","."],[".",".",".",".",".",".",".",".",6,5,3,".",".",".",".",".",".",".",".",".",".",".",6,5,3,".","."],[0,0,0,".",0,0,0,".",".",".",".",3,1,".",0,0,0,".",0,0,0,".",".",".",".",3,1]],[[".",".",".",".",".",".",".",".",".",".",".",".",".",".",".",".",".",".",".",".",".",".",".",".",".",".",".",".",".",".",".",".",".",".",".",".",".",".",".",".",".","."],[".",".",".",".",".",".",".",".",".",".",".",".",".",".",".",".",".",".",".",".",".",".",".",".",".",".",".",".",".",".",".",".",".",".",".",".",".",".",".",".",".","."],[".",".",".",".",".",".",".",".",".",".",".",".",".",".",".",".",".",".",".",".",".",".",".",".",".",".",".",".",".",".",".",".",".",".",".",".",".",".",".",".",".","."],[".",".",".",".",".",".",".",".",".",".",".",".",".",".",".",".",".",".",".",".",".",".",".",".",".",".",".",".",".",".",".",".",".",".",".",12,12,12,12,12,12,12],[".",".",".",".",".",".",".",".",".",".",".",".",".",".",".",".",".",".",".",".",".",3,3,3,3,3,3,3,7,7,7,7,7,7,7,".",".",".",".",".",".","."],[5,5,5,5,5,5,5,3,3,3,3,3,3,3,1,1,1,1,1,1,1,".",".",".",".",".",".",".",".",".",".",".",".",".",".",".",".",".",".",".",".","."],[".",".",".",".",".",".",".",".",".",".",".",".",".",".",".",".",".",".",".",".",".",".",".",".",".",".",".",".",".",".",".",".",".",".",".",".",".",".",".",".",".","."]],[[".","_",".",".",".",".","_",".",".","_",".","_","_",".","_",".",".",".",".","_",".","_",".",".",".",".","_","."],[".","_",".",".",".",".","_",".",".","_",".","_","_",".","_",".",".",".",".","_",".","_",".",".",".",".","_","."],[".","_",".",".",".",".","_",".",".","_",".","_","_",".","_",".",".",".",".","_",".","_",".",".",".",".","_","."],[7,"_",".",".",".",".","_",5,5,"_",3,"_","_",".","_",".",".",".",".","_",".","_",".",".",".",".","_","."],[7,"_",7,5,".",".","_",5,5,"_",3,"_","_",3,"_",".",".",".",".","_",7,"_",".",".",".",".","_",0],[5,"_",".",".",8,5,"_",3,3,"_",1,"_","_",3,"_",".",".",3,5,"_",7,"_",".",".",7,8,"_",0],[".","_",".",".",".",".","_",".",".","_",".","_","_",3,"_",3,5,".",".","_",7,"_",7,10,".",".","_",0]],[[".",".",".",".",".",".",".",".","_",".",".",".",".",".",".",".","."],[".",".",".",".",".",".",".",".","_",".",".",".",".",".",".",".","."],[".",".",".",".",".",".",".",".","_",".",".",".",".",".",".",".","."],[".",".",".",".",".",".",".",".","_",".",".",".",".",".",".",".","."],[".",".",".",".",".",".",".",4,"_",".",".",3,".",".",".",1,"."],[".",".",".",6,5,".",".",".","_",".",3,".",3,".",1,".",1],[0,1,4,".",".",0,4,".","_",3,".",".",".",1,".",".","."]],[[".",".",".",".","_",".",".",".",".","_",".",".",".",".","_",".",".",".","."],[".",".",".",".","_",".",".",".",".","_",".",".",".",".","_",".",".",".","."],[".",".",".",".","_",".",".",".",".","_",".",".",".",".","_",".",".",".","."],[".",".",".",".","_",".",".",".",".","_",".",".",".",".","_",".",".",".","."],[".",".",".",".","_",".",".",".",".","_",".",".",".",".","_",".",".",".","."],[5,".",".",".","_",".",".",".",".","_",5,".",".",".","_",".",".",7,"."],[".",7,8,5,"_",4,5,7,5,"_",".",7,8,5,"_",4,7,".",5]],[[".",".",".",".","_",".",".",".",".",".",".",".",".",".",".",".","_",".",".",".",".",".",".",".",".",".",".",".",".",".","."],[".",".",".",".","_",".",".",".",".",".",".",".",".",".",".",".","_",".",".",".",".",".",".",".",".",".",".",".",".",".","."],[".",".",".",".","_",".",".",".",".",".",".",".",".",".",".",".","_",".",".",".",".",".",".",".",".",".",".",".",".",".","."],[".",".",".",".","_",".",".",".",".",".",".",".",".",".",".",".","_",".",".",".",".",".",".",".",".",".",".",".",".",".","."],[".",".",".",".","_",".",".",".",".",".",".",".",4,4,4,4,"_",".",".",".",".",".",".",".",".",".",".",".",".",11,11],[".",".",".",".","_",".",".",".",".",".",".",".",".",".",".",".","_",".",".",".",".",".",".",".",".",".",".",".",".",".","."],[0,0,0,0,"_",1,1,3,4,4,4,4,".",".",".",".","_",7,7,8,8,8,8,10,10,11,11,14,14,".","."]],[[".",".",".",".","_",".",".","_",".","_","_","_",".",".",".",".","_",".",".","_",".","_",".",".",".",".",".",".",".",".","."],[".",".",".",".","_",".",".","_",".","_","_","_",".",".",".",".","_",".",".","_",".","_",".",".",".",".",".",".",".",".","."],[".",".",".",".","_",".",".","_",".","_","_","_",".",".",".",".","_",".",".","_",".","_",".",".",".",".",".",".",".",".","."],[".",".",".",".","_",".",".","_",".","_","_","_",".",".",".",".","_",".",".","_",".","_",7,6,5,".",5,".",".",".","."],[".",".",".",".","_",".",".","_",".","_","_","_",".",".",".",".","_",".",".","_",".","_",".",".",".",7,".",7,6,5,"."],[".",".",".",".","_",".",".","_",".","_","_","_",".",".",".",".","_",".",".","_",".","_",".",".",".",".",".",".",".",".",5],[0,0,0,0,"_",0,0,"_",0,"_","_","_",0,0,0,0,"_",0,0,"_",0,"_",".",".",".",".",".",".",".",".","."]]],"numberofstrings":7,"notes":["E","B","G","D","A","E","A"],"capo":0,"stringnotes":["E3","B2","G2","D2","A1","E1","A0"],"comments":["Stave 1:","Stave 2:","Stave 3:","Stave 4:","Stave 5:","Stave 6:","Stave 7:"],"timing":[[null,"W","W","W",null,"W","W","W",null,"W","W","W","W","W",null,"W","W","W",null,"W","W","W",null,null,"W","W","W","W"],[null,"W","W","W","W","W","W","W","W","W","W","W","W","W","W","W","W","W","W","W","W","W","W","W","W","W","W","W","W","W","W","W","W","W","W","W","W","W","W","W","W","W","W","W"],["W",null,"W","W","W","W",null,"W","W",null,"W",null,"W","W",null,"W","W","W","W","W","W",null,"W","W","W","W",null,"W"],["W","W","W","W","W","W","W","W",null,"W","W","W","W","W","W","W","W"],["W","W","W","W",null,"W","W","W","W",null,"W","W","W","W",null,"W","W","W","W"],["W","W","W","W",null,"W","W","W","W","W","W","W","W","W","W","W","W","W","W","W","W","W","W","W","W","W","W","W","W","W","W"],["W","W","W","W",null,"W","W",null,"W",null,null,null,"W","W","W","W","W","W","W",null,"W",null,"W","W","W","W","W","W","W","W","W"]],"timingvisible":false,"tabcounter":31,"stave":6,"totalstaves":7,"instrument":"7guitar","selectedtuning":"7guitar","version":"13"}

Member for

5 months
Submitted by objesten on Fri, 2020-05-22 11:13