Sound will begin in 5 seconds

Surfin USA

01234567891011121314151617181920212223
E
B
G
D
A
E
B
0 1 2 3 4 5 6 7 8 9 10 11 12 13 14 15 16 17 18 19 20 21 22 23
Song Science #1: How Pros Use 6 Chords to Write Hit Songs
(/) Slide Up  (\) Slide Down  (h) Hammer On  (p) Pull Off  (b) Bend (r) Release (v) Vibrato

Stave 1:

G|-----------------|-----------5--8--|-----------------|-----------5--8--|--
D|-----------5--8--|-----5--8--------|-----------5--8--|-----5--8--------|--
A|-----5--8--------|--6--------------|-----5--8--------|--6--------------|--
E|--6--------------|-----------------|--6--------------|-----------------|--

Stave 2:

G|-----------------|-----------5--8--|-----------------|-----------5--8--5--------|--
D|-----------3--6--|-----5--8--------|-----------5--8--|-----5--8-----------8--5--|--
A|-----3--6--------|--6--------------|-----5--8--------|--6-----------------------|--
E|--4--------------|-----------------|--6--------------|--------------------------|--

Stave 3:

G|--------------------------|-----------5--8--5--------|--
D|-----------5--8--5--------|-----5--8-----------8-----|--
A|-----5--8-----------8--5--|--6-----------------------|--
E|--6-----------------------|--------------------------|--

Stave 4:

G|--------------------------|-----------5--8--5--------|--
D|-----------3--6--3--------|-----5--8-----------8--5--|--
A|-----3--6-----------6--3--|--6-----------------------|--
E|--4-----------------------|--------------------------|--

Stave 5:

G|-----------------|-----------5--8--
D|-----------5--8--|-----5--8--------
A|-----5--8--------|--6--------------
E|--6--------------|-----------------

Stave 6:

G|--|--|--|--|--
D|--|--|--|--|--
A|--|--|--|--|--
E|--|--|--|--|--

http://www.guitartabcreator.com
Guitar Tab Creator is intended to store guitar tab created through the tool. It currently does not support in-line text editing. Any text you place in here will be lost. If you need to comment on your tab, please use the "Tab Notes" section located below.