Sound will begin in 5 seconds

All The Trees Are Dead In February Guitar Tab

Chords
01234567891011121314151617181920212223
E
B
G
D
A
E
B
0 1 2 3 4 5 6 7 8 9 10 11 12 13 14 15 16 17 18 19 20 21 22 23
(/) Slide Up  (\) Slide Down  (h) Hammer On  (p) Pull Off  (b) Bend (r) Release (v) Vibrato

Stave 1:Repeat 4 times. Clean Channel

E|-----------
B|-----3-----
G|--5--3--3--
D|--5--5--3--
A|--6--3--5--
E|--4-----3--

Stave 2:Repeat Twice.

E|--------------------------------------------------
B|-----------1-----------1--------------------------
G|-----------3-----------3-----------5-----------5--
D|--------2--2--------2--2-----------5-----------5--
A|--3--3--------3--3--------------6--6--------6--6--
E|--------------------------4--4--------4--4--------

Stave 3:Repeat Twice.

E|--------------
B|--------------
G|--5--7--3--5--
D|--5--8--3--5--
A|--6--8--5--6--
E|--4--6--3--4--

Stave 4:

E|--------------------------------------------------
B|-----------1-----------1--------------------------
G|-----------3-----------3-----------5-----------5--
D|--------2--2--------2--2-----------5-----------5--
A|--3--3--------3--3--------------6--6--------6--6--
E|--------------------------4--4--------4--4--------

Stave 5:

E|--------
B|--------
G|--3--5--
D|--3--5--
A|--5--6--
E|--3--4--

.Stave 6: Distortion on. play these chords until guitar solo. refer to song and video for rhythm patterns.

E|-----------
B|-----3-----
G|--5--3--3--
D|--5--5--3--
A|--6--3--5--
E|--4-----3--

Stave 7:

E|--------------------------------------------------------------------------------11----------------------11------13------15------16------15--
B|----------------------------------------------------------------13--13--11--13------13--11--13--11--13------13------13------13------13------
G|--12--12--12--10--8--10--8--10--8-------------8--10--8--------------------------------------------------------------------------------------
D|-----------------------------------10--8--10------------10--12------------------------------------------------------------------------------
A|--------------------------------------------------------------------------------------------------------------------------------------------
E|--------------------------------------------------------------------------------------------------------------------------------------------

Stave 8:

E|--------------------------------------------------------
B|--------------------------------------------------------
G|-----5-----5-----3-----3--------1-----1-----3-----3-----
D|-----5-----5-----3-----3--------1-----1-----3-----3-----
A|-----6-----6-----5-----5--------3-----3-----5-----5-----
E|--4-----4-----3-----3-----3--1-----1-----3-----3-----3--

Stave 9:

E|-----------------------------------------------------
B|-----------------------------------------------------
G|-----5-----5-----3-----3--------1-----1-----1-----1--
D|-----5-----5-----3-----3--------1-----1-----1-----1--
A|-----6-----6-----5-----5--------3-----3-----3-----3--
E|--4-----4-----3-----3-----3--1-----1-----1-----1-----

Stave 10:

E|--------------------------------------
B|--------------------------------------
G|--------------------------------------
D|--5--5--5--5--5--5--5--5--------------
A|--7--7--7--7--6--6--6--6--8--8--8--8--
E|--5--5--5--5--4--4--4--4--4--4--4--4--

http://www.guitartabcreator.com
Guitar Tab Creator is intended to store guitar tab created through the tool. It currently does not support in-line text editing. Any text you place in here will be lost. If you need to comment on your tab, please use the "Tab Notes" section located below.