Sound will begin in 5 seconds

Vai Amanhecer - PC Baruk

Chords
01234567891011121314151617181920212223
E
B
G
D
A
E
B
0 1 2 3 4 5 6 7 8 9 10 11 12 13 14 15 16 17 18 19 20 21 22 23
(/) Slide Up  (\) Slide Down  (h) Hammer On  (p) Pull Off  (b) Bend (r) Release (v) Vibrato

Verso 1

E|----------------------------------------------|--
B|--------------------------------------10------|--
G|--------------7-------------------------------|--
D|--------7-------------------------12------12--|--
A|-----5-----5-----------------\10--------------|--
E|----------------------------------------------|--

Verso 2

E|-----------------------------------------|--
B|-----7--7-----3-----------5--5-----2-----|--
G|-----7--7-----2-----------6--7-----2-----|--
D|-----------------------------------------|--
A|-----------------------------------------|--
E|-----------------------------------------|--

Refrão (Solo 1)

E|----------------------------------|--
B|--------------------5-----5b7-----|--
G|--------------4--7-----7----------|--
D|--------4--7----------------------|--
A|-----7----------------------------|--
E|----------------------------------|--

Solo

E|----------------------------------------------------------------------------------------------------
B|--------------------------10----------------------------------------------------10--10--------------
G|--------4--7--4-----9b11------9-----7--7--4-------------------4--7--7-----9\11----------11--9h11--9h
D|--5--7-----------7---------------------------7--5--------5\7----------------------------------------
A|---------------------------------------------------7--5---------------------------------------------
E|----------------------------------------------------------------------------------------------------

Solo

E|--------------------------------------------------------------------------------------12--12--10--
B|-----------------------------------------------------------10-------------10--12--10--------------
G|--11--11--9--11--11b12--11--9--7--7\11-----7-----9b11--11------11--9--11--------------------------
D|----------------------------------------------9---------------------------------------------------
A|--------------------------------------------------------------------------------------------------
E|--------------------------------------------------------------------------------------------------

Solo

E|--12--12b14--12b14-----12--10--9h10p9---------------------------------------------------------------
B|---------------------------------------10------10\12b14--10-----10--10--10--10--10--7-------10--12--
G|-------------------------------------------11-------------------11--11--11--9---9---7h9\11----------
D|----------------------------------------------------------------------------------------------------
A|----------------------------------------------------------------------------------------------------
E|----------------------------------------------------------------------------------------------------

Solo

E|--10--12\14--14h15p14--10--12--14--15--17--17b19--17--15--14h15p14------
B|--------------------------------------------------------------------15--
G|------------------------------------------------------------------------
D|------------------------------------------------------------------------
A|------------------------------------------------------------------------
E|------------------------------------------------------------------------

http://www.guitartabcreator.com
Guitar Tab Creator is intended to store guitar tab created through the tool. It currently does not support in-line text editing. Any text you place in here will be lost. If you need to comment on your tab, please use the "Tab Notes" section located below.