first song

Chords

01234567891011121314151617181920212223
E
B
G
D
A
E
B
0 1 2 3 4 5 6 7 8 9 10 11 12 13 14 15 16 17 18 19 20 21 22 23
(/) Slide Up  (\) Slide Down  (h) Hammer On  (p) Pull Off  (b) Bend (r) Release (v) Vibrato

Stave 1:

C |--------------------------------------------------------------------
G |--------------------------------------------------------------------
Eb|--------------------------------------------------------------------
Bb|--------------------------------------------------------------------
F |-----7-----7-----7-----7-----7-----7-----7-----7-----5-----8-----7--
C |--5-----5-----5-----5-----5-----5-----5-----5-----3-----6-----5-----

Stave 2:

C |-----------------------------------------------------------------------------------------------------------------------
G |-----------------------------------------------------------------------------------------------------------------------
Eb|-----------------------------------------------------------------------------------------------------------------------
Bb|-----------------------------------------------------------------------------------------------------------------------
F |------14------14------14---------14------14------14------17----------17---------12------12---------14------14------14--
C |--12------12------12---------12------12------12------15------15--15---------10------10---------12------12------12------

Stave 3:

C |--------------
G |--------------
Eb|--------------
Bb|--------------
F |-----3--5b6v--
C |--5-----------

							http://www.guitartabcreator.com
Instruments
{"strings":[[[".",".",".",".",".",".",".",".",".",".",".",".",".",".",".",".",".",".",".",".",".","."],[".",".",".",".",".",".",".",".",".",".",".",".",".",".",".",".",".",".",".",".",".","."],[".",".",".",".",".",".",".",".",".",".",".",".",".",".",".",".",".",".",".",".",".","."],[".",".",".",".",".",".",".",".",".",".",".",".",".",".",".",".",".",".",".",".",".","."],[".",7,".",7,".",7,".",7,".",7,".",7,".",7,".",7,".",5,".",8,".",7],[5,".",5,".",5,".",5,".",5,".",5,".",5,".",5,".",3,".",6,".",5,"."]],[[".",".",".",".",".",".","_",".",".",".",".",".",".",".",".",".",".",".","_",".",".",".",".","_",".",".",".",".",".","."],[".",".",".",".",".",".","_",".",".",".",".",".",".",".",".",".",".",".","_",".",".",".",".","_",".",".",".",".",".","."],[".",".",".",".",".",".","_",".",".",".",".",".",".",".",".",".",".",".","_",".",".",".",".","_",".",".",".",".",".","."],[".",".",".",".",".",".","_",".",".",".",".",".",".",".",".",".",".",".","_",".",".",".",".","_",".",".",".",".",".","."],[".",14,".",14,".",14,"_",".",14,".",14,".",14,".",17,".",".",17,"_",".",12,".",12,"_",".",14,".",14,".",14],[12,".",12,".",12,".","_",12,".",12,".",12,".",15,".",15,15,".","_",10,".",10,".","_",12,".",12,".",12,"."]],[[".",".",".",".",".","."],[".",".",".",".",".","."],[".",".",".",".",".","."],[".",".",".",".",".","."],[".",3,5,"b",6,"v"],[5,".",".",".",".","."]]],"numberofstrings":6,"notes":["C","G","DsEb","AsBb","F","C"],"capo":0,"stringnotes":["C3","G2","Eb2","Bb1","F1","C1"],"comments":["Stave 1:","Stave 2:","Stave 3:"],"timing":[["W","W","W","W","W","W","W","W","W","W","W","W","W","W","W","W","W","W","W","W","W","W"],["W","W","W","W","W","W","W","W","W","W","W","W","W","W","W","W","W","W",null,"W","W","W","W",null,"W","W","W","W","W","W"],["W","W","W",null,"W"]],"timingvisible":false,"tabcounter":6,"stave":2,"totalstaves":3,"instrument":"6guitar","selectedtuning":"C Tuning","version":"13"}

Member for

1 month 4 weeks
Submitted by nyolcas on Mon, 2020-11-16 11:07