Who You Are

01234567891011121314151617181920212223
E
B
G
D
A
E
B
0 1 2 3 4 5 6 7 8 9 10 11 12 13 14 15 16 17 18 19 20 21 22 23
(/) Slide Up  (\) Slide Down  (h) Hammer On  (p) Pull Off  (b) Bend (r) Release (v) Vibrato

Stave 1:

D|--------------------------------------------:|--------------------------------------------------:|--------------------------------------------:|--
A|--------------------------------------------:|--------------------------------------------------:|--------------------------------------------:|--
F|--------------------------------------------:|--------------------------------------------------:|--------------------------------------------:|--
C|-----------------4-----------------------3--:|-----------------------------------------4--3-----:|--4--3--2--1-----3--------------------------:|--
G|--0-----4--3-----2--------0-----4--3-----1--:|-----------------------------------------2--1--3--:|--2--1--2--1--2--1--------------------------:|--
D|--2-----2--1-----2--------2-----2--1-----1--:|--0--0--0--0--0--0--0--0--0--0--0--0--0--------1--:|--2--1--------0--1--0--0--0--0--0--0--0--0--:|--

Stave 2:

D|-----------------------------------------------------------------------------------:|--------------------------------------------------------------
A|-----------------------------------------------------------------------------------:|--------------------------------------------------------------
F|-----------------------------------------------------------------------------------:|--------------------------------------------------------------
C|-----------------------------------------------------------------------------------:|--4--------3--------4-----5--------4--------3-----4--------3--
G|--------------9/10--------------10--10\9--------------9/10--------------13--13\12--:|--------------------------------------------------------------
D|--0--0--0--0--7-8---0--0--0--0--8---8--7--0--0--0--0--7-8---0--0--0--0--11--11-10--:|-----2--2-----2--2-----2-----2--2-----2--2-----2-----2--2-----

Stave 3:

D|-----------------------------------:|----------------------------------------------------------:|--------------------:|-----------------------------
A|-----------------------------------:|----------------------------------------------------------:|--------------------:|-----------------------------
F|-----------------------------------:|----------------------------------------------------------:|--------------------:|-----------------------------
C|--------4--------------------------:|--4--------------3--------------2--1--4\3-----3--4-----4--:|-----4-----------3--:|--3--------------------------
G|-----------------------------------:|--4--------------3--------------2--1--4-3-----3--4-----2--:|--2--2--------2--1--:|--1--------------------------
D|--2--2-----0--0--0--0--0--0--0--0--:|--2--0--0--0--0--1--0--0--0--0--------2-1--0--1--2--0-----:|--0--2--------0--1--:|-----0--0--0--0--0--0--0--0--

Stave 4:

D|--------------------------------------------------------------------:|--
A|--------------------------------------------------------------------:|--
F|--------------------------------------------------------------------:|--
C|--------------------------3--------------------3-----------------3--:|--
G|--------------------------1--------------------1--------3--------1--:|--
D|--0--0--0--0--0--0--0--0-----0--0--0--0--0--0-----0--0--1--0--0-----:|--

							http://www.guitartabcreator.com
Chords

Instruments
{"strings":[[[".","_",".",".","_",".","_","_",".","_",".",".","_",".",":|",".",".",".",".",".",".",".",".",".",".",".",".",".",".",".",".",":|",".",".",".",".",".",".",".",".",".",".",".",".",".",".",":|"],[".","_",".",".","_",".","_","_",".","_",".",".","_",".",":|",".",".",".",".",".",".",".",".",".",".",".",".",".",".",".",".",":|",".",".",".",".",".",".",".",".",".",".",".",".",".",".",":|"],[".","_",".",".","_",".","_","_",".","_",".",".","_",".",":|",".",".",".",".",".",".",".",".",".",".",".",".",".",".",".",".",":|",".",".",".",".",".",".",".",".",".",".",".",".",".",".",":|"],[".","_",".",".","_",4,"_","_",".","_",".",".","_",3,":|",".",".",".",".",".",".",".",".",".",".",".",".",".",4,3,".",":|",4,3,2,1,".",3,".",".",".",".",".",".",".",".",":|"],[0,"_",4,3,"_",2,"_","_",0,"_",4,3,"_",1,":|",".",".",".",".",".",".",".",".",".",".",".",".",".",2,1,3,":|",2,1,2,1,2,1,".",".",".",".",".",".",".",".",":|"],[2,"_",2,1,"_",2,"_","_",2,"_",2,1,"_",1,":|",0,0,0,0,0,0,0,0,0,0,0,0,0,".",".",1,":|",2,1,".",".",0,1,0,0,0,0,0,0,0,0,":|"]],[[".",".",".",".",".",".",".",".",".",".",".",".",".",".",".",".",".",".",".",".",".",".",".",".",".",".",".",".",".",".",":|",".",".",".",".",".",".",".",".",".",".",".",".",".",".",".",".",".",".",".","."],[".",".",".",".",".",".",".",".",".",".",".",".",".",".",".",".",".",".",".",".",".",".",".",".",".",".",".",".",".",".",":|",".",".",".",".",".",".",".",".",".",".",".",".",".",".",".",".",".",".",".","."],[".",".",".",".",".",".",".",".",".",".",".",".",".",".",".",".",".",".",".",".",".",".",".",".",".",".",".",".",".",".",":|",".",".",".",".",".",".",".",".",".",".",".",".",".",".",".",".",".",".",".","."],[".",".",".",".",".",".",".",".",".",".",".",".",".",".",".",".",".",".",".",".",".",".",".",".",".",".",".",".",".",".",":|",4,".",".",3,".",".",4,".",5,".",".",4,".",".",3,".",4,".",".",3],[".",".",".",".",9,"/",10,".",".",".",".",10,10,"\\",9,".",".",".",".",9,"/",10,".",".",".",".",13,13,"\\",12,":|",".",".",".",".",".",".",".",".",".",".",".",".",".",".",".",".",".",".",".","."],[0,0,0,0,7,".",8,0,0,0,0,8,8,".",7,0,0,0,0,7,".",8,0,0,0,0,11,11,".",10,":|",".",2,2,".",2,2,".",2,".",2,2,".",2,2,".",2,".",2,2,"."]],[[".",".",".",".",".",".",".",".",".",".",".",":|",".",".",".",".",".",".",".",".",".",".",".",".",".",".",".",".",".",".",".",".",":|",".",".","_","_",".",".",":|",".",".",".",".",".",".",".",".","."],[".",".",".",".",".",".",".",".",".",".",".",":|",".",".",".",".",".",".",".",".",".",".",".",".",".",".",".",".",".",".",".",".",":|",".",".","_","_",".",".",":|",".",".",".",".",".",".",".",".","."],[".",".",".",".",".",".",".",".",".",".",".",":|",".",".",".",".",".",".",".",".",".",".",".",".",".",".",".",".",".",".",".",".",":|",".",".","_","_",".",".",":|",".",".",".",".",".",".",".",".","."],[".",".",4,".",".",".",".",".",".",".",".",":|",4,".",".",".",".",3,".",".",".",".",2,1,4,"\\",3,".",3,4,".",4,":|",".",4,"_","_",".",3,":|",3,".",".",".",".",".",".",".","."],[".",".",".",".",".",".",".",".",".",".",".",":|",4,".",".",".",".",3,".",".",".",".",2,1,4,".",3,".",3,4,".",2,":|",2,2,"_","_",2,1,":|",1,".",".",".",".",".",".",".","."],[2,2,".",0,0,0,0,0,0,0,0,":|",2,0,0,0,0,1,0,0,0,0,".",".",2,".",1,0,1,2,0,".",":|",0,2,"_","_",0,1,":|",".",0,0,0,0,0,0,0,0]],[[".",".",".",".",".",".",".",".",".",".",".",".",".",".",".",".",".",".",".",".",".",".",":|"],[".",".",".",".",".",".",".",".",".",".",".",".",".",".",".",".",".",".",".",".",".",".",":|"],[".",".",".",".",".",".",".",".",".",".",".",".",".",".",".",".",".",".",".",".",".",".",":|"],[".",".",".",".",".",".",".",".",3,".",".",".",".",".",".",3,".",".",".",".",".",3,":|"],[".",".",".",".",".",".",".",".",1,".",".",".",".",".",".",1,".",".",3,".",".",1,":|"],[0,0,0,0,0,0,0,0,".",0,0,0,0,0,0,".",0,0,1,0,0,".",":|"]]],"numberofstrings":6,"notes":["D","A","F","C","G","D"],"capo":0,"stringnotes":["D3","A2","F2","C2","G1","D1"],"comments":["Stave 1:","Stave 2:","Stave 3:","Stave 4:"],"timing":[["W","W","W","W","W","W","W","W","W","W","W","W","W","W",null,"W","W","W","W","W","W","W","W","W","W","W","W","W","W","W","W",null,"W","W","W","W","W","W","W","W","W","W","W","W","W","W"],["W","W","W","W","W",null,"W","W","W","W","W","W","W",null,"W","W","W","W","W","W",null,"W","W","W","W","W","W","W",null,"W",null,"W","W","W","W","W","W","W","W","W","W","W","W","W","W","W","W","W","W","W","W"],["W","W","W","W","W","W","W","W","W","W","W",null,"W","W","W","W","W","W","W","W","W","W","W","W","W","W","W","W","W","W","W","W",null,"W","W","W","W","W","W",null,"W","W","W","W","W","W","W","W","W","W","W"],["W","W","W","W","W","W","W","W","W","W","W","W","W","W","W","W","W","W","W","W","W","W"]],"timingvisible":false,"tabcounter":23,"stave":3,"totalstaves":4,"instrument":"6guitar","selectedtuning":"Full Step Down","version":"13"}

Member for

7 months
Submitted by Nxoxtman on Tue, 2021-05-18 23:04