Wendigo

01234567891011121314151617181920212223
E
B
G
D
A
E
B
0 1 2 3 4 5 6 7 8 9 10 11 12 13 14 15 16 17 18 19 20 21 22 23
(/) Slide Up  (\) Slide Down  (h) Hammer On  (p) Pull Off  (b) Bend (r) Release (v) Vibrato

Stave 1:

D|--7--------------8------------:|-------------------:|-----------------7--8---:|--------------------------------------------------------------:|--
A|--9--------------10-----------:|-------------------:|-----------------9--10--:|--------------------------------------------------------------:|--
F|--9--------------10-----------:|-------------------:|-----------------9--10--:|--------------------------------------------------------------:|--
C|--7--------------8------------:|-------------------:|-----------------7--8---:|--------------------------------------------------------------:|--
G|--7--------------8------------:|-------------------:|-----------------7--8---:|--------------------------------------------------------------:|--
D|--7--------------8------------:|--12--------/1--0--:|--0--0--0--0-----7--8---:|--0--0--0--0--0--0--0-----0--0--0--0-----0--0--0--0--0--0--0--:|--

Stave 2:

D|--7--7--7--7--7--7--7--8---8---8---8---8---8---8---8---:|-----------------------------------------------------------------------------------------------:|--
A|--9--9--9--9--9--9--9--10--10--10--10--10--10--10--10--:|-----------------------------------------------------------------------------------------------:|--
F|--9--9--9--9--9--9--9--10--10--10--10--10--10--10--10--:|-----------------------------------------------------------------------------------------------:|--
C|--7--7--7--7--7--7--7--8---8---8---8---8---8---8---8---:|-----------------------------------------------------------------------------------------------:|--
G|--7--7--7--7--7--7--7--8---8---8---8---8---8---8---8---:|--------8-----7--------14--13--------10--8--7--8--------8-----7--------14--13--------10--8--7--:|--
D|--7--7--7--7--7--7--7--8---8---8---8---8---8---8---8---:|--0--0-----0-----0--0----------0--0---------------0--0-----0-----0--0----------0--0------------:|--

Stave 3:

D|--------------------------------:|--7--7--7--7--8---8---8---8---8---8---5--5--5--5--6--6--6--6--6--6--:|--------------------------------7--------------
A|--------------------------------:|--9--9--9--9--10--10--10--10--10--10--7--7--7--7--8--8--8--8--8--8--:|--------------------------------9--------------
F|--------------------------------:|--9--9--9--9--10--10--10--10--10--10--7--7--7--7--8--8--8--8--8--8--:|--------------------------------9--------------
C|--------------------------------:|--7--7--7--7--8---8---8---8---8---8---5--5--5--5--6--6--6--6--6--6--:|--------------7--6--------------7--------------
G|--3--2--3--2--3--2--3--2--5--6--:|--7--7--7--7--8---8---8---8---8---8---5--5--5--5--6--6--6--6--6--6--:|--------------5--4--------------7--------------
D|--1--0--1--0--1--0--1--0--3--4--:|--7--7--7--7--8---8---8---8---8---8---5--5--5--5--6--6--6--6--6--6--:|--0--0--0--0--5--4--0--0--0--0--7--0--0--0--0--

Stave 4:

D|--7--8---7--:|--------------------------------------------------------------------------:|-----------------------------------------
A|--9--10--9--:|--------------------------------------------------------------------------:|-----------------------------------------
F|--9--10--9--:|--------------------------------------------------------------------------:|-----------------------------------------
C|--7--8---7--:|--7--8--------------7--8--------------7--8--------------7--8--------------:|--5--4--------------5--4--------------3--
G|--7--8---7--:|--5--6--2--2--2--2--5--6--2--2--2--2--5--6--2--2--2--2--5--6--2--2--2--2--:|--3--2--------------3--2--------------1--
D|--7--8---7--:|--5--6--0--0--0--0--5--6--0--0--0--0--5--6--0--0--0--0--5--6--0--0--0--0--:|--3--2--2--2--2--2--3--2--2--2--2--2--1--

							http://www.guitartabcreator.com
Chords

Instruments
{"strings":[[[7,"_","_","_","_",8,"_","_","_",":|",".","_","_",".",".",".",":|",".",".",".",".","_",7,8,":|",".",".",".",".",".",".",".","_",".",".",".",".","_",".",".",".",".",".",".",".",":|"],[9,"_","_","_","_",10,"_","_","_",":|",".","_","_",".",".",".",":|",".",".",".",".","_",9,10,":|",".",".",".",".",".",".",".","_",".",".",".",".","_",".",".",".",".",".",".",".",":|"],[9,"_","_","_","_",10,"_","_","_",":|",".","_","_",".",".",".",":|",".",".",".",".","_",9,10,":|",".",".",".",".",".",".",".","_",".",".",".",".","_",".",".",".",".",".",".",".",":|"],[7,"_","_","_","_",8,"_","_","_",":|",".","_","_",".",".",".",":|",".",".",".",".","_",7,8,":|",".",".",".",".",".",".",".","_",".",".",".",".","_",".",".",".",".",".",".",".",":|"],[7,"_","_","_","_",8,"_","_","_",":|",".","_","_",".",".",".",":|",".",".",".",".","_",7,8,":|",".",".",".",".",".",".",".","_",".",".",".",".","_",".",".",".",".",".",".",".",":|"],[7,"_","_","_","_",8,"_","_","_",":|",12,"_","_","/",1,0,":|",0,0,0,0,"_",7,8,":|",0,0,0,0,0,0,0,"_",0,0,0,0,"_",0,0,0,0,0,0,0,":|"]],[[7,7,7,7,7,7,7,8,8,8,8,8,8,8,8,":|",".",".",".",".",".",".",".",".",".",".",".",".",".",".",".",".",".",".",".",".",".",".",".",".",".",".",".",".",".",":|"],[9,9,9,9,9,9,9,10,10,10,10,10,10,10,10,":|",".",".",".",".",".",".",".",".",".",".",".",".",".",".",".",".",".",".",".",".",".",".",".",".",".",".",".",".",".",":|"],[9,9,9,9,9,9,9,10,10,10,10,10,10,10,10,":|",".",".",".",".",".",".",".",".",".",".",".",".",".",".",".",".",".",".",".",".",".",".",".",".",".",".",".",".",".",":|"],[7,7,7,7,7,7,7,8,8,8,8,8,8,8,8,":|",".",".",".",".",".",".",".",".",".",".",".",".",".",".",".",".",".",".",".",".",".",".",".",".",".",".",".",".",".",":|"],[7,7,7,7,7,7,7,8,8,8,8,8,8,8,8,":|",".",".",8,".",7,".",".",14,13,".",".",10,8,7,8,".",".",8,".",7,".",".",14,13,".",".",10,8,7,":|"],[7,7,7,7,7,7,7,8,8,8,8,8,8,8,8,":|",0,0,".",0,".",0,0,".",".",0,0,".",".",".",".",0,0,".",0,".",0,0,".",".",0,0,".",".",".",":|"]],[[".",".",".",".",".",".",".",".",".",".",":|",7,7,7,7,8,8,8,8,8,8,5,5,5,5,6,6,6,6,6,6,":|",".",".",".",".",".",".",".",".",".",".",7,".",".",".","."],[".",".",".",".",".",".",".",".",".",".",":|",9,9,9,9,10,10,10,10,10,10,7,7,7,7,8,8,8,8,8,8,":|",".",".",".",".",".",".",".",".",".",".",9,".",".",".","."],[".",".",".",".",".",".",".",".",".",".",":|",9,9,9,9,10,10,10,10,10,10,7,7,7,7,8,8,8,8,8,8,":|",".",".",".",".",".",".",".",".",".",".",9,".",".",".","."],[".",".",".",".",".",".",".",".",".",".",":|",7,7,7,7,8,8,8,8,8,8,5,5,5,5,6,6,6,6,6,6,":|",".",".",".",".",7,6,".",".",".",".",7,".",".",".","."],[3,2,3,2,3,2,3,2,5,6,":|",7,7,7,7,8,8,8,8,8,8,5,5,5,5,6,6,6,6,6,6,":|",".",".",".",".",5,4,".",".",".",".",7,".",".",".","."],[1,0,1,0,1,0,1,0,3,4,":|",7,7,7,7,8,8,8,8,8,8,5,5,5,5,6,6,6,6,6,6,":|",0,0,0,0,5,4,0,0,0,0,7,0,0,0,0]],[[7,8,7,":|",".",".",".",".",".",".",".",".",".",".",".",".",".",".",".",".",".",".",".",".",".",".",".",".",":|",".",".",".",".",".",".",".",".",".",".",".",".","."],[9,10,9,":|",".",".",".",".",".",".",".",".",".",".",".",".",".",".",".",".",".",".",".",".",".",".",".",".",":|",".",".",".",".",".",".",".",".",".",".",".",".","."],[9,10,9,":|",".",".",".",".",".",".",".",".",".",".",".",".",".",".",".",".",".",".",".",".",".",".",".",".",":|",".",".",".",".",".",".",".",".",".",".",".",".","."],[7,8,7,":|",7,8,".",".",".",".",7,8,".",".",".",".",7,8,".",".",".",".",7,8,".",".",".",".",":|",5,4,".",".",".",".",5,4,".",".",".",".",3],[7,8,7,":|",5,6,2,2,2,2,5,6,2,2,2,2,5,6,2,2,2,2,5,6,2,2,2,2,":|",3,2,".",".",".",".",3,2,".",".",".",".",1],[7,8,7,":|",5,6,0,0,0,0,5,6,0,0,0,0,5,6,0,0,0,0,5,6,0,0,0,0,":|",3,2,2,2,2,2,3,2,2,2,2,2,1]]],"numberofstrings":6,"notes":["D","A","F","C","G","D"],"capo":0,"stringnotes":["D3","A2","F2","C2","G1","D1"],"comments":["Stave 1:","Stave 2:","Stave 3:","Stave 4:"],"timing":[["W","W","W","W","W","W","W","W","W",null,"W","W","W","W","W","W","W","W","W","W","W","W","W","W",null,"W","W","W","W","W","W","W","W","W","W","W","W","W","W","W","W","W","W","W","W","W","W"],["W","W","W","W","W","W","W","W","W","W","W","W","W","W","W",null,"W","W","W","W","W","W","W","W","W","W","W","W","W","W","W","W","W","W","W","W","W","W","W","W","W","W","W","W","W"],["W","W","W","W","W","W","W","W","W","W","W","W","W","W","W","W","W","W","W","W","W","W","W","W","W","W","W","W","W","W","W","W","W","W","W","W","W","W","W","W","W","W","W","W","W","W","W"],["W","W","W",null,"W","W","W","W","W","W","W","W","W","W","W","W","W","W","W","W","W","W","W","W","W","W","W","W",null,"W","W","W","W","W","W","W","W","W","W","W","W","W"]],"timingvisible":false,"tabcounter":41,"stave":3,"totalstaves":4,"instrument":"6guitar","selectedtuning":"Full Step Down","version":"13"}

Member for

7 months
Submitted by Nxoxtman on Fri, 2021-04-30 13:24