Way of the samurai

01234567891011121314151617181920212223
E
B
G
D
A
E
B
0 1 2 3 4 5 6 7 8 9 10 11 12 13 14 15 16 17 18 19 20 21 22 23
(/) Slide Up  (\) Slide Down  (h) Hammer On  (p) Pull Off  (b) Bend (r) Release (v) Vibrato

Stave 1:

D|-----------------------------------------------------------------:|-----------------------------------------------------------------------------------------:|--
A|-----------------------------------------------------------------:|-----------------------------------------------------------------------------------------:|--
F|-----------------------------------------------------------------:|-----------------------------------------------------------------------------------------:|--
C|--------------------------------------------------------------3--:|-----------------------------------------------------------------------------------------:|--
G|--3--------------3--------------3--3--3--------------3-----3-----:|-----------------------------------------------------------------------------------------:|--
D|--1--1--1--1--1--1--1--1--1--1--1--1--1--1--1--1--1--1--1--------:|--1--1--1--1--0--0--0--0--3--3--3--3--4--4--4--4--3--3--3--3--0--0--0--0--1--1--1--1--3--:|--

Stave 2:

D|-----------------------------------------------------------------------------------------------------------|--------------------------------:|--
A|-----------------------------------------------------------------------------------------------------------|--------------------------------:|--
F|-----------------------------------------------------------------------------------------------------------|--------------------------------:|--
C|-----------------------------------------------------------------------------------------------------------|--------------------------------:|--
G|--6--6--6--6--6--7-----5--6--6--6--6--6--7-----5--6--6--6--6--6--7-----5--------------6--------------5--5--|--------------4-----------3--3--:|--
D|--4--4--4--4--4--5--0--3--4--4--4--4--4--5--0--3--4--4--4--4--4--5--0--3--5--5--5--5--4--4--4--4--4--3--3--|--3--3--3--3--2--2--2--2--1--1--:|--

Stave 3:

D|-----------------------------------------------------------------------------------------------------------------------------------------------
A|-----------------------------------------------------------------------------------------------------------------------------------------------
F|-----------------------------------------------------------------------------------------------------------------------------------------------
C|-----------------------------------------------------------------------------------------------------------------------------------------------
G|--3--------------3--------------------------------------------------3--3--3--3--------------3--------------------------------------------------
D|--1--0--0--0--0--1--0--0--0--0--0--0--0--0--0--0--0--0--0--0--0--0--1--1--1--1--0--0--0--0--1--0--0--0--0--0--0--0--0--0--0--0--0--0--0--0--0--

Stave 4:

D|--------------:|--------------------------------------------:|--------------------------------------------:|--
A|--------------:|--------------------------------------------:|--------------------------------------------:|--
F|--------------:|--------------------------------------------:|--------------------------------------------:|--
C|--------------:|--------------------------------------------:|--------------------------------------------:|--
G|--3--3--3--3--:|--7--8--7--8-----7--8--7--8--------------8--:|--6--6--6--6--6--6--7--6--5--4--6--5--4--3--:|--
D|--1--1--1--1--:|--0--0--5--6-----0--0--5--6--5--5--5--5--6--:|--4--4--4--4--4--4--5--4--3--2--4--3--2--1--:|--

Stave 5:

D|--------------:|-----------------------------:|--
A|--------------:|-----------------------------:|--
F|--------------:|-----------------------------:|--
C|--------------:|-----------------------------:|--
G|--4--4--4--5--:|--4--4--4--4--4-----2--5--3--:|--
D|--2--2--2--3--:|--2--2--2--2--2-----0--3--1--:|--

							http://www.guitartabcreator.com
Chords

Instruments
{"strings":[[[".",".",".",".",".",".",".",".",".",".",".",".",".",".",".",".",".",".",".",".",".",":|",".",".",".",".",".",".",".",".",".",".",".",".",".",".",".",".",".",".",".",".",".",".",".",".",".",".",".",".",".",":|"],[".",".",".",".",".",".",".",".",".",".",".",".",".",".",".",".",".",".",".",".",".",":|",".",".",".",".",".",".",".",".",".",".",".",".",".",".",".",".",".",".",".",".",".",".",".",".",".",".",".",".",".",":|"],[".",".",".",".",".",".",".",".",".",".",".",".",".",".",".",".",".",".",".",".",".",":|",".",".",".",".",".",".",".",".",".",".",".",".",".",".",".",".",".",".",".",".",".",".",".",".",".",".",".",".",".",":|"],[".",".",".",".",".",".",".",".",".",".",".",".",".",".",".",".",".",".",".",".",3,":|",".",".",".",".",".",".",".",".",".",".",".",".",".",".",".",".",".",".",".",".",".",".",".",".",".",".",".",".",".",":|"],[3,".",".",".",".",3,".",".",".",".",3,3,3,".",".",".",".",3,".",3,".",":|",".",".",".",".",".",".",".",".",".",".",".",".",".",".",".",".",".",".",".",".",".",".",".",".",".",".",".",".",".",":|"],[1,1,1,1,1,1,1,1,1,1,1,1,1,1,1,1,1,1,1,".",".",":|",1,1,1,1,0,0,0,0,3,3,3,3,4,4,4,4,3,3,3,3,0,0,0,0,1,1,1,1,3,":|"]],[[".",".",".",".",".",".",".",".",".",".",".",".",".",".",".",".",".",".",".",".",".",".",".",".",".",".",".",".",".",".",".",".",".",".",".","|",".",".",".",".",".",".",".",".",".",".",":|"],[".",".",".",".",".",".",".",".",".",".",".",".",".",".",".",".",".",".",".",".",".",".",".",".",".",".",".",".",".",".",".",".",".",".",".","|",".",".",".",".",".",".",".",".",".",".",":|"],[".",".",".",".",".",".",".",".",".",".",".",".",".",".",".",".",".",".",".",".",".",".",".",".",".",".",".",".",".",".",".",".",".",".",".","|",".",".",".",".",".",".",".",".",".",".",":|"],[".",".",".",".",".",".",".",".",".",".",".",".",".",".",".",".",".",".",".",".",".",".",".",".",".",".",".",".",".",".",".",".",".",".",".","|",".",".",".",".",".",".",".",".",".",".",":|"],[6,6,6,6,6,7,".",5,6,6,6,6,6,7,".",5,6,6,6,6,6,7,".",5,".",".",".",".",6,".",".",".",".",5,5,"|",".",".",".",".",4,".",".",".",3,3,":|"],[4,4,4,4,4,5,0,3,4,4,4,4,4,5,0,3,4,4,4,4,4,5,0,3,5,5,5,5,4,4,4,4,4,3,3,"|",3,3,3,3,2,2,2,2,1,1,":|"]],[[".",".",".",".",".",".",".",".",".",".",".",".",".",".",".",".",".",".",".",".",".",".",".",".",".",".",".",".",".",".",".",".",".",".",".",".",".",".",".",".",".",".",".",".",".",".","."],[".",".",".",".",".",".",".",".",".",".",".",".",".",".",".",".",".",".",".",".",".",".",".",".",".",".",".",".",".",".",".",".",".",".",".",".",".",".",".",".",".",".",".",".",".",".","."],[".",".",".",".",".",".",".",".",".",".",".",".",".",".",".",".",".",".",".",".",".",".",".",".",".",".",".",".",".",".",".",".",".",".",".",".",".",".",".",".",".",".",".",".",".",".","."],[".",".",".",".",".",".",".",".",".",".",".",".",".",".",".",".",".",".",".",".",".",".",".",".",".",".",".",".",".",".",".",".",".",".",".",".",".",".",".",".",".",".",".",".",".",".","."],[3,".",".",".",".",3,".",".",".",".",".",".",".",".",".",".",".",".",".",".",".",".",3,3,3,3,".",".",".",".",3,".",".",".",".",".",".",".",".",".",".",".",".",".",".",".","."],[1,0,0,0,0,1,0,0,0,0,0,0,0,0,0,0,0,0,0,0,0,0,1,1,1,1,0,0,0,0,1,0,0,0,0,0,0,0,0,0,0,0,0,0,0,0,0]],[[".",".",".",".",":|",".",".",".",".","_",".",".",".",".",".",".",".",".",".",":|",".",".",".",".",".",".",".",".",".",".",".",".",".",".",":|"],[".",".",".",".",":|",".",".",".",".","_",".",".",".",".",".",".",".",".",".",":|",".",".",".",".",".",".",".",".",".",".",".",".",".",".",":|"],[".",".",".",".",":|",".",".",".",".","_",".",".",".",".",".",".",".",".",".",":|",".",".",".",".",".",".",".",".",".",".",".",".",".",".",":|"],[".",".",".",".",":|",".",".",".",".","_",".",".",".",".",".",".",".",".",".",":|",".",".",".",".",".",".",".",".",".",".",".",".",".",".",":|"],[3,3,3,3,":|",7,8,7,8,"_",7,8,7,8,".",".",".",".",8,":|",6,6,6,6,6,6,7,6,5,4,6,5,4,3,":|"],[1,1,1,1,":|",0,0,5,6,"_",0,0,5,6,5,5,5,5,6,":|",4,4,4,4,4,4,5,4,3,2,4,3,2,1,":|"]],[[".",".",".",".",":|",".",".",".",".",".","_",".",".",".",":|"],[".",".",".",".",":|",".",".",".",".",".","_",".",".",".",":|"],[".",".",".",".",":|",".",".",".",".",".","_",".",".",".",":|"],[".",".",".",".",":|",".",".",".",".",".","_",".",".",".",":|"],[4,4,4,5,":|",4,4,4,4,4,"_",2,5,3,":|"],[2,2,2,3,":|",2,2,2,2,2,"_",0,3,1,":|"]]],"numberofstrings":6,"notes":["D","A","F","C","G","D"],"capo":0,"stringnotes":["D3","A2","F2","C2","G1","D1"],"comments":["Stave 1:","Stave 2:","Stave 3:","Stave 4:","Stave 5:"],"timing":[[null,null,null,null,null,null,null,null,null,null,null,null,null,null,null,null,null,null,null,null,null,null,null,null,null,null,null,null,null,null,null,null,null,null,null,null,null,null,null,null,null,null,null,null,null,null,null,null,null,null,null,"W"],["W","Q","Q","Q","Q","Q","Q","Q","Q","Q","Q","Q","Q","Q","Q","Q","Q","Q","Q","Q","Q","Q","Q","Q","Q","Q","Q","Q","Q","Q","Q","Q","Q","Q","Q",null,"Q","Q","Q","Q","Q","Q","Q","Q","Q","Q"],["Q","Q","Q","Q","Q","Q","Q","Q","Q","Q","Q","Q","Q","Q","Q","Q","Q","Q","Q","Q","Q","Q","Q","Q","Q","Q","Q","Q","Q","Q","Q","Q","Q","Q","Q","Q","Q","Q","Q","Q","Q","Q","Q","Q","Q","Q","Q"],["Q","Q","Q","Q",null,"Q","Q","Q","Q","Q","Q","Q","Q","Q","Q","Q","Q","Q","Q",null,"W","W","W","W","W","W","W","W","W","W","W","W","W","W"],["W","W","W","W",null,"W","W","W","W","W","W","W","W","W"]],"timingvisible":false,"tabcounter":15,"stave":4,"totalstaves":5,"instrument":"6guitar","selectedtuning":"Full Step Down","version":"13"}

Member for

7 months
Submitted by Nxoxtman on Sun, 2021-04-25 21:23