Tribal Nut Edits

01234567891011121314151617181920212223
E
B
G
D
A
E
B
0 1 2 3 4 5 6 7 8 9 10 11 12 13 14 15 16 17 18 19 20 21 22 23
(/) Slide Up  (\) Slide Down  (h) Hammer On  (p) Pull Off  (b) Bend (r) Release (v) Vibrato

Stave 1:

D|-----------------------------------------------------------------------------------:|--------------------------------------------------------------
A|-----------------------------------------------------------------------------------:|--------------------------------------------------------------
F|-----------------------------------------------------------------------------------:|--------------------------------------------------------------
C|--------------------------------------------------------------------------2--1-----:|--------------------------------------------------------------
G|-----------------------3--------------------3--4--3--------------------3--2--1--3--:|--------------------3--------------------4--------------------
D|--0--0--0--0--0--0--0--1--0--0--0--0--0--0--1--2--1--0--0--0--0--0--0--1--------1--:|--0--0--0--0--0--0--1--0--0--0--0--0--0--2--1--1--1--1--1--1--

Stave 2:

D|-----------------------------------------:|--
A|-----------------------------------------:|--
F|-----------------------------------------:|--
C|-----------------------------------------:|--
G|--5-----------------3-----------------4--:|--
D|--3--0--0--0--0--0--1--0--0--0--0--0--2--:|--

Stave 3:

D|-----------------------------------|-----------------------------:|--
A|-----------------------------------|-----------------------------:|--
F|-----------------------------------|-----------------------------:|--
C|-----------------------------------|-----------------------------:|--
G|--2--2--2--2-----------6--6--6--6--|--2--2--2--2-----6--6--3--3--:|--
D|--0--0--0--0-----------4--4--4--4--|--0--0--0--0-----4--4--1--1--:|--

							http://www.guitartabcreator.com
Chords

Instruments
{"strings":[[[".",".",".",".",".",".",".",".",".",".",".",".",".",".",".",".",".",".",".",".",".",".",".",".",".",".",".",":|",".",".",".",".",".",".",".",".",".",".",".",".",".",".",".",".",".",".",".","."],[".",".",".",".",".",".",".",".",".",".",".",".",".",".",".",".",".",".",".",".",".",".",".",".",".",".",".",":|",".",".",".",".",".",".",".",".",".",".",".",".",".",".",".",".",".",".",".","."],[".",".",".",".",".",".",".",".",".",".",".",".",".",".",".",".",".",".",".",".",".",".",".",".",".",".",".",":|",".",".",".",".",".",".",".",".",".",".",".",".",".",".",".",".",".",".",".","."],[".",".",".",".",".",".",".",".",".",".",".",".",".",".",".",".",".",".",".",".",".",".",".",".",2,1,".",":|",".",".",".",".",".",".",".",".",".",".",".",".",".",".",".",".",".",".",".","."],[".",".",".",".",".",".",".",3,".",".",".",".",".",".",3,4,3,".",".",".",".",".",".",3,2,1,3,":|",".",".",".",".",".",".",3,".",".",".",".",".",".",4,".",".",".",".",".","."],[0,0,0,0,0,0,0,1,0,0,0,0,0,0,1,2,1,0,0,0,0,0,0,1,".",".",1,":|",0,0,0,0,0,0,1,0,0,0,0,0,0,2,1,1,1,1,1,1]],[[".",".",".",".",".",".",".",".",".",".",".",".",".",":|"],[".",".",".",".",".",".",".",".",".",".",".",".",".",":|"],[".",".",".",".",".",".",".",".",".",".",".",".",".",":|"],[".",".",".",".",".",".",".",".",".",".",".",".",".",":|"],[5,".",".",".",".",".",3,".",".",".",".",".",4,":|"],[3,0,0,0,0,0,1,0,0,0,0,0,2,":|"]],[[".",".",".",".","_","_","_",".",".",".",".","|",".",".",".",".","_",".",".",".",".",":|"],[".",".",".",".","_","_","_",".",".",".",".","|",".",".",".",".","_",".",".",".",".",":|"],[".",".",".",".","_","_","_",".",".",".",".","|",".",".",".",".","_",".",".",".",".",":|"],[".",".",".",".","_","_","_",".",".",".",".","|",".",".",".",".","_",".",".",".",".",":|"],[2,2,2,2,"_","_","_",6,6,6,6,"|",2,2,2,2,"_",6,6,3,3,":|"],[0,0,0,0,"_","_","_",4,4,4,4,"|",0,0,0,0,"_",4,4,1,1,":|"]]],"numberofstrings":6,"notes":["D","A","F","C","G","D"],"capo":0,"stringnotes":["D3","A2","F2","C2","G1","D1"],"comments":["Stave 1:","Stave 2:","Stave 3:"],"timing":[["W","W","W","W","W","W","W","W","W","W","W","W","W","W","W","W","W","W","W","W","W","W","W","W","W","W","W",null,"W","W","W","W","W","W","W","W","W","W","W","W","W","W","W","W","W","W","W","W"],["W","W","W","W","W","W","W","W","W","W","W","W","W"],["W","W","W","W","W","W","W","W","W","W","W",null,"W","W","W","W","W","W","W","W","W"]],"timingvisible":false,"tabcounter":22,"stave":2,"totalstaves":3,"instrument":"6guitar","selectedtuning":"Full Step Down","version":"13"}

Member for

7 months
Submitted by Nxoxtman on Fri, 2021-04-30 12:42