Hydrophobia

01234567891011121314151617181920212223
E
B
G
D
A
E
B
0 1 2 3 4 5 6 7 8 9 10 11 12 13 14 15 16 17 18 19 20 21 22 23
(/) Slide Up  (\) Slide Down  (h) Hammer On  (p) Pull Off  (b) Bend (r) Release (v) Vibrato

Stave 1:

D|------------------------------------------------------------------------:|---------------------------------------------------------------------
A|------------------------------------------------------------------------:|---------------------------------------------------------------------
F|------------------------------------------------------------------------:|---------------------------------------------------------------------
C|------------------------------------------------------------------------:|---------------------------------------------------------------------
G|--6--------7--------6-----9--------10-----------13----------14----------:|--6--------7--------6--------7--------9--------10--------13----------
D|-----6--6-----6--6-----------9--9------9--9---------13--13------13--13--:|-----6--6-----6--6-----6--6-----6--6-----9--9------9--9------13--13--

Stave 2:

D|--------------:|-------------------:|------------------------------------------------------------------------------------:|--
A|--------------:|-------------------:|------------------------------------------------------------------------------------:|--
F|--------------:|-------------------:|------------------------------------------------------------------------------------:|--
C|--------------:|--8-----11-----15--:|-----------------------------------------------------------------6--7--6h7r6--------:|--
G|--14----------:|--8-----11-----15--:|-----------------------------------------------------------7--8---------------8--7--:|--
D|------13--13--:|--6-----9------13--:|--0--0--0--0--0--0--0--0--0--0--0--0--0--0--0--0--0--7--8---------------------------:|--

Stave 3:

D|-----------------------------------------------------------------------------------------------------------------------------------:|--
A|-----------------------------------------------------------------------------------------------------------------------------------:|--
F|-----------------------------------------------------------------------------------------------------------------------------------:|--
C|-----------------------------------------------------------------4-----------------------------------------------------------------:|--
G|--------------3--------------3--------3--------3--------3--4-----2-----------------3--------------3--------3--------3--2--1--0--2--:|--
D|--0--0--0--0--1--0--0--0--0--1--0--0--1--0--0--1--0--0--1--2--0--------0--0--0--0--1--0--0--0--0--1--0--0--1--0--0--1-----------0--:|--

Stave 4:

D|-----------------------------------:|---------------------------------------------:|-----------------------------
A|-----------------------------------:|---------------------------------------------:|-----------------------------
F|-----------------------------------:|---------------------------------------------:|-----------------------------
C|-----------------------------------:|---------------------------------------------:|-----------------------------
G|--------------2--------5--------6--:|-----------7h10r7-----------4h7r4-----5h8r5--:|--------7h10r7-----4h7r4-----
D|--1--1--1--1--0--0--0--3--0--0--4--:|--0--0--0----------0--0--0---------0---------:|--0--0----------0---------0--

Stave 5:

D|---------:|---------------------------------------------------------------------------------:|--------------------------------------------------
A|---------:|---------------------------------------------------------------------------------:|--------------------------------------------------
F|---------:|---------------------------------------------------------------------------------:|--------------------------------------------------
C|---------:|---------------------------------------------------------------------------------:|--------------------------------------------------
G|--5h8r5--:|-----------------------------3--6-----------------------------6--3--6--7--10--9--:|--------------------------------------------------
D|---------:|--0--0--0--0--0--0--0--0-----1--4--1--1--1--1--1--1--1--1-----4--1--4--5--8---7--:|--0--0--0--0--0--0--0--0--0--0--0--0--0--0--0--0--

Stave 6:

D|--------------------------------------------------------------------------------------------------------------------------:|--
A|--------------------------------------------------------------------------------------------------------------------------:|--
F|--------------------------------------------------------------------------------------------------------------------------:|--
C|--------------------------------------------------------------------------------------------------------------------------:|--
G|--------------------------------------------------------------------------------------------------------------------------:|--
D|--1--1--1--1--1--1--1--1--1--1--1--1--1--1--1--1--4--4--4--4--5--5--5--5--5--5--5--5--5--5--5--5--8--8--8--8--7--7--7--7--:|--

							http://www.guitartabcreator.com
Chords

Instruments
{"strings":[[[".",".",".",".",".",".",".","_",".",".",".",".",".",".","_",".",".",".",".",".",".",":|",".",".",".",".",".",".",".",".",".",".",".",".",".",".",".",".",".",".",".",".","."],[".",".",".",".",".",".",".","_",".",".",".",".",".",".","_",".",".",".",".",".",".",":|",".",".",".",".",".",".",".",".",".",".",".",".",".",".",".",".",".",".",".",".","."],[".",".",".",".",".",".",".","_",".",".",".",".",".",".","_",".",".",".",".",".",".",":|",".",".",".",".",".",".",".",".",".",".",".",".",".",".",".",".",".",".",".",".","."],[".",".",".",".",".",".",".","_",".",".",".",".",".",".","_",".",".",".",".",".",".",":|",".",".",".",".",".",".",".",".",".",".",".",".",".",".",".",".",".",".",".",".","."],[6,".",".",7,".",".",6,"_",9,".",".",10,".",".","_",13,".",".",14,".",".",":|",6,".",".",7,".",".",6,".",".",7,".",".",9,".",".",10,".",".",13,".","."],[".",6,6,".",6,6,".","_",".",9,9,".",9,9,"_",".",13,13,".",13,13,":|",".",6,6,".",6,6,".",6,6,".",6,6,".",9,9,".",9,9,".",13,13]],[[".",".",".",":|",".","_",".","_",".",":|",".",".",".",".",".",".",".",".",".",".",".",".",".",".",".",".",".",".",".",".",".",".",".",".",".",".",".",".",".",".",":|"],[".",".",".",":|",".","_",".","_",".",":|",".",".",".",".",".",".",".",".",".",".",".",".",".",".",".",".",".",".",".",".",".",".",".",".",".",".",".",".",".",".",":|"],[".",".",".",":|",".","_",".","_",".",":|",".",".",".",".",".",".",".",".",".",".",".",".",".",".",".",".",".",".",".",".",".",".",".",".",".",".",".",".",".",".",":|"],[".",".",".",":|",8,"_",11,"_",15,":|",".",".",".",".",".",".",".",".",".",".",".",".",".",".",".",".",".",".",".",".",".",6,7,6,"h",7,"r",6,".",".",":|"],[14,".",".",":|",8,"_",11,"_",15,":|",".",".",".",".",".",".",".",".",".",".",".",".",".",".",".",".",".",".",".",7,8,".",".",".",".",".",".",".",8,7,":|"],[".",13,13,":|",6,"_",9,"_",13,":|",0,0,0,0,0,0,0,0,0,0,0,0,0,0,0,0,0,7,8,".",".",".",".",".",".",".",".",".",".",".",":|"]],[[".",".",".",".",".",".",".",".",".",".",".",".",".",".",".",".",".",".",".",".",".",".","_",".",".",".",".",".",".",".",".",".",".",".",".",".",".",".",".",".",".",".",".",":|"],[".",".",".",".",".",".",".",".",".",".",".",".",".",".",".",".",".",".",".",".",".",".","_",".",".",".",".",".",".",".",".",".",".",".",".",".",".",".",".",".",".",".",".",":|"],[".",".",".",".",".",".",".",".",".",".",".",".",".",".",".",".",".",".",".",".",".",".","_",".",".",".",".",".",".",".",".",".",".",".",".",".",".",".",".",".",".",".",".",":|"],[".",".",".",".",".",".",".",".",".",".",".",".",".",".",".",".",".",".",".",".",".",4,"_",".",".",".",".",".",".",".",".",".",".",".",".",".",".",".",".",".",".",".",".",":|"],[".",".",".",".",3,".",".",".",".",3,".",".",3,".",".",3,".",".",3,4,".",2,"_",".",".",".",".",3,".",".",".",".",3,".",".",3,".",".",3,2,1,0,2,":|"],[0,0,0,0,1,0,0,0,0,1,0,0,1,0,0,1,0,0,1,2,0,".","_",0,0,0,0,1,0,0,0,0,1,0,0,1,0,0,1,".",".",".",0,":|"]],[[".",".",".",".",".",".",".",".",".",".",".",":|",".",".",".",".",".",".",".",".",".",".",".",".",".",".",".",".",".",".",".",".",".",".",":|",".",".",".",".",".",".",".",".",".",".",".",".",".","."],[".",".",".",".",".",".",".",".",".",".",".",":|",".",".",".",".",".",".",".",".",".",".",".",".",".",".",".",".",".",".",".",".",".",".",":|",".",".",".",".",".",".",".",".",".",".",".",".",".","."],[".",".",".",".",".",".",".",".",".",".",".",":|",".",".",".",".",".",".",".",".",".",".",".",".",".",".",".",".",".",".",".",".",".",".",":|",".",".",".",".",".",".",".",".",".",".",".",".",".","."],[".",".",".",".",".",".",".",".",".",".",".",":|",".",".",".",".",".",".",".",".",".",".",".",".",".",".",".",".",".",".",".",".",".",".",":|",".",".",".",".",".",".",".",".",".",".",".",".",".","."],[".",".",".",".",2,".",".",5,".",".",6,":|",".",".",".",7,"h",10,"r",7,".",".",".",4,"h",7,"r",4,".",5,"h",8,"r",5,":|",".",".",7,"h",10,"r",7,".",4,"h",7,"r",4,"."],[1,1,1,1,0,0,0,3,0,0,4,":|",0,0,0,".",".",".",".",".",0,0,0,".",".",".",".",".",0,".",".",".",".",".",":|",0,0,".",".",".",".",".",0,".",".",".",".",".",0]],[[".",".",".",".",".",":|",".",".",".",".",".",".",".",".","_",".",".",".",".",".",".",".",".",".",".","_",".",".",".",".",".",".",":|",".",".",".",".",".",".",".",".",".",".",".",".",".",".",".","."],[".",".",".",".",".",":|",".",".",".",".",".",".",".",".","_",".",".",".",".",".",".",".",".",".",".","_",".",".",".",".",".",".",":|",".",".",".",".",".",".",".",".",".",".",".",".",".",".",".","."],[".",".",".",".",".",":|",".",".",".",".",".",".",".",".","_",".",".",".",".",".",".",".",".",".",".","_",".",".",".",".",".",".",":|",".",".",".",".",".",".",".",".",".",".",".",".",".",".",".","."],[".",".",".",".",".",":|",".",".",".",".",".",".",".",".","_",".",".",".",".",".",".",".",".",".",".","_",".",".",".",".",".",".",":|",".",".",".",".",".",".",".",".",".",".",".",".",".",".",".","."],[5,"h",8,"r",5,":|",".",".",".",".",".",".",".",".","_",3,6,".",".",".",".",".",".",".",".","_",6,3,6,7,10,9,":|",".",".",".",".",".",".",".",".",".",".",".",".",".",".",".","."],[".",".",".",".",".",":|",0,0,0,0,0,0,0,0,"_",1,4,1,1,1,1,1,1,1,1,"_",4,1,4,5,8,7,":|",0,0,0,0,0,0,0,0,0,0,0,0,0,0,0,0]],[[".",".",".",".",".",".",".",".",".",".",".",".",".",".",".",".",".",".",".",".",".",".",".",".",".",".",".",".",".",".",".",".",".",".",".",".",".",".",".",".",":|"],[".",".",".",".",".",".",".",".",".",".",".",".",".",".",".",".",".",".",".",".",".",".",".",".",".",".",".",".",".",".",".",".",".",".",".",".",".",".",".",".",":|"],[".",".",".",".",".",".",".",".",".",".",".",".",".",".",".",".",".",".",".",".",".",".",".",".",".",".",".",".",".",".",".",".",".",".",".",".",".",".",".",".",":|"],[".",".",".",".",".",".",".",".",".",".",".",".",".",".",".",".",".",".",".",".",".",".",".",".",".",".",".",".",".",".",".",".",".",".",".",".",".",".",".",".",":|"],[".",".",".",".",".",".",".",".",".",".",".",".",".",".",".",".",".",".",".",".",".",".",".",".",".",".",".",".",".",".",".",".",".",".",".",".",".",".",".",".",":|"],[1,1,1,1,1,1,1,1,1,1,1,1,1,1,1,1,4,4,4,4,5,5,5,5,5,5,5,5,5,5,5,5,8,8,8,8,7,7,7,7,":|"]]],"numberofstrings":6,"notes":["D","A","F","C","G","D"],"capo":0,"stringnotes":["D3","A2","F2","C2","G1","D1"],"comments":["Stave 1:","Stave 2:","Stave 3:","Stave 4:","Stave 5:","Stave 6:"],"timing":[["W","W","W","W","W","W","W","W","W","W","W","W","W","W","W","W","W","W","W","W","W",null,"W","W","W","W","W","W","W","W","W","W","W","W","W","W","W","W","W","W","W","W","W","W","W","W"],["W","W","W",null,"W","W","W","W","W",null,"W","W","W","W","W","W","W","W","W","W","W","W","W","W","W","W","W","W","W","W","W","W","W","W",null,"W","W","W","W","W"],["W","W","W","W","W","W","W","W","W","W","W","W","W","W","W","W","W","W","W","W","W","W","W","W","W","W","W","W","W","W","W","W","W","W","W","W","W","W","W","W","W","W","W"],["W","W","W","W","W","W","W","W","W","W","W",null,"W","W","W","W",null,"W",null,"W","W","W","W","W",null,"W",null,"W","W","W",null,"W",null,"W",null,"W","W","W",null,"W",null,"W","W","W",null,"W",null,"W","W","W","W"],["W",null,"W",null,"W",null,"W","W","W","W","W","W","W","W","W","W","W","W","W","W","W","W","W","W","W","W","W","W","W","W","W","W",null,"W","W","W","W","W","W","W","W","W","W","W","W","W","W","W","W"],["W","W","W","W","W","W","W","W","W","W","W","W","W","W","W","W","W","W","W","W","W","W","W","W","W","W","W","W","W","W","W","W","W","W","W","W","W","W","W","W"]],"timingvisible":false,"tabcounter":41,"stave":5,"totalstaves":6,"instrument":"6guitar","selectedtuning":"Full Step Down","version":"13"}

Member for

7 months
Submitted by Nxoxtman on Mon, 2021-04-26 21:37