Sound will begin in 5 seconds

STUFF

Chords
01234567891011121314151617181920212223
E
B
G
D
A
E
B
0 1 2 3 4 5 6 7 8 9 10 11 12 13 14 15 16 17 18 19 20 21 22 23
Song Science #1: How Pros Use 6 Chords to Write Hit Songs
(/) Slide Up  (\) Slide Down  (h) Hammer On  (p) Pull Off  (b) Bend (r) Release (v) Vibrato

Stave 1:

E|--10--------------10------12------13--------------13------12------10--
B|------10------10------10------10------10------10------10------10--10--
G|----------10------------------------------10----------------------10--
D|----------------------------------------------------------------------
A|----------------------------------------------------------------------
E|----------------------------------------------------------------------

Stave 2:

E|--9-------------9------10------12-------------12------10--9---
B|-----10-----10-----10------10------10-----10------10------10--
G|---------9-----------------------------9------------------9---
D|--------------------------------------------------------------
A|--------------------------------------------------------------
E|--------------------------------------------------------------

Stave 3:

E|--10-------------10/11v-----10-------------10\8--
B|---------12------------------------12------------
G|-------------12------------------------12--------
D|-------------------------------------------------
A|-------------------------------------------------
E|-------------------------------------------------

Stave 4:

E|-----------------------------------------|-------------------------------------------------
B|-----------------------------------------|-------------------------------------------------
G|--6v-----7v--10--11--10v-----7v--b10r6v--|--6--x--x-----7--x--x-----10--x--x-----11--x--x--
D|-----------------------------------------|--6--x--x-----7--x--x-----10--x--x-----11--x--x--
A|-----------------------------------------|--4--x--x-----5--x--x-----8---x--x-----9---x--x--
E|-----------------------------------------|-------------------------------------------------

Stave 5:

E|----------11--12-------------
B|--14-------------------------
G|------13----------13--13/11--
D|-----------------------------
A|-----------------------------
E|-----------------------------

Stave 6:

E|--------------12---------------------------------------------------------------------12--
B|--13--12----------15v-----12----------15--13v-----------------13--12v----------------13--
G|----------14------------------14--12--------------14--12------------------13--14/16--14--
D|----------------------------------------------------------15-----------------------------
A|-----------------------------------------------------------------------------------------
E|-----------------------------------------------------------------------------------------

Stave 7:

E|--------------16b17r16v-----16-------------
B|----------17--------------------17--14/9v--
G|------18-----------------------------------
D|--18---------------------------------------
A|-------------------------------------------
E|-------------------------------------------

Stave 8:

E|-------------------
B|-------------------
G|----------9h10p9v--
D|------10-----------
A|--12---------------
E|-------------------

http://www.guitartabcreator.com
Guitar Tab Creator is intended to store guitar tab created through the tool. It currently does not support in-line text editing. Any text you place in here will be lost. If you need to comment on your tab, please use the "Tab Notes" section located below.