Sound will begin in 5 seconds

Questa Primavera

Chords
01234567891011121314151617181920212223
E
B
G
D
A
E
B
0 1 2 3 4 5 6 7 8 9 10 11 12 13 14 15 16 17 18 19 20 21 22 23
(/) Slide Up  (\) Slide Down  (h) Hammer On  (p) Pull Off  (b) Bend (r) Release (v) Vibrato

Stave 1:

E|-----0-----2--0--3--7--7--------5--5--------0--2-------------------2-----2--2--------------------0---------------
B|--0-----4-----------5--5-----7--7--7-----0-----------3p1-----------3-----3--3--3--------3--6-----5--3h5p3--------
G|--------------------5--5-----5--5--5--0-------------------3--4--4--4-----4--4--4-----4-----------4---------5--4--
D|-----------------------------0-----0-----------------0-------------------0--0--0--5-----------0------------------
A|--------------------0-----0-----------------------0-----------------------------------------------------------0--
E|-----------------------------0-------------------------------3--------3--------4-----------------4---------------

Stave 2:

E|-----7--------5--------------------2--5--3--2h3p2-----------0-----0--0-----0--0--------0--
B|-----5-----7--7--4-----------0--4------------------5--4--5--3-----3--3-----3--3--------3--
G|--5--5-----5--5--2------------------------------------------0-----0--0-----4--4--------4--
D|-----------0-----2-----1--4---------------------------------------------------------0-----
A|--------0--------2--2--------------------2------------------------------------------------
E|-----------0--------------------2---------------------0--------0--2-----2--4-----4--------

Stave 3:

E|--7--7--------7--5--5--------5--2--2--------2--0--0-----------0--7--7--------7-----------2--------2--0--0--
B|--5--5-----7--5--7--7-----5--4--3--3--------3--3--3-----------3--5--5-----7--5-----------4--------4--3--3--
G|--5--5-----5--5--5--5-----5--5--4--4--------4--4--4-----------4--5--5-----5--5-----------2--------2--0--0--
D|-----------0-----0-----0--0--------------0--------------0-----------------0-----0--------2--------4--------
A|--0-----0-----------------0--------------------------------------0-----0-----------3--2-----2-----2--------
E|-----------0--------------------3-----3--------4-----4--------------------0--------------------2--2--0-----

Stave 4:

E|-----0--0-----0--0--------0--
B|-----3--3-----3--3--------3--
G|-----0--0-----4--4--------4--
D|-----------------------0-----
A|-----------------------------
E|--0--2-----2--4-----4--------

http://www.guitartabcreator.com
Guitar Tab Creator is intended to store guitar tab created through the tool. It currently does not support in-line text editing. Any text you place in here will be lost. If you need to comment on your tab, please use the "Tab Notes" section located below.