Sound will begin in 5 seconds

Acoustic Intro

01234567891011121314151617181920212223
E
B
G
D
A
E
B
0 1 2 3 4 5 6 7 8 9 10 11 12 13 14 15 16 17 18 19 20 21 22 23
Song Science #1: How Pros Use 6 Chords to Write Hit Songs
(/) Slide Up  (\) Slide Down  (h) Hammer On  (p) Pull Off  (b) Bend (r) Release (v) Vibrato

Stave 1:

D|--------------------------0-----------------------------------------------0-----------------------
B|--------1--------1-----------------1--------1-----------0--------0-----------------0--------0-----
G|-----0--------0--------0--------0--------0-----------0--------0--------0--------0--------0--------
D|--------------------------------------------------------------------------------------------------
A|--3--------3--------3--------3--------3--------3--2--------2--------2--------2--------2--------2--
E|--------------------------------------------------------------------------------------------------

Stave 2:

D|--------------------------0-----------------------------------------------0-----------------------
B|--------1--------1-----------------1--------1-----------1--------1-----------------1--------1-----
G|-----0--------0--------0--------0--------0-----------0--------0--------0--------0--------0--------
D|--------------------------------------------------------------------------------------------------
A|--1--------1--------1--------1--------1--------1--0--------0--------0--------0--------0--------0--
E|--------------------------------------------------------------------------------------------------

Stave 3:

D|--------------------------------------------------------------------------------------------------
B|--------------------------------------------------------------------------------------------------
G|--------3--------3--------5--------3--------3-----------2--------2--------3--------2--------2-----
D|-----0--------0--------0--------0--------0-----------0--------0--------0--------0--------0--------
A|--------------------------------------------------------------------------------------------------
E|--3--------3--------3--------3--------3--------3--1--------1--------1--------1--------1--------1--

Stave 4:

D|--------------------------------------------------------------------------------------------------
B|--------------------------------------------------------------------------------------------------
G|--------4--------4--------5--------4--------4-----------7--------7--------6--------6--------6-----
D|-----0--------0--------0--------0--------0-----------7--------7--------7--------7--------7--------
A|--------------------------------------------------------------------------------------------------
E|--4--------4--------4--------4--------4--------4--5--------5--------5--------5--------5--------5--

Stave 5:

D|-----------5--------5--------7--------5--------5-----------5--------5--------7--------5--------5-----
B|-----0-----------0--------0--------0--------0-----------0--------0--------0--------0--------0--------
G|-----------------------------------------------------------------------------------------------------
D|--5-----------5--------5--------5--------5--------5--4--------4--------4--------4--------4--------4--
A|-----------------------------------------------------------------------------------------------------
E|-----------------------------------------------------------------------------------------------------

Stave 6:

D|--------5--------5--------4--------5--------5-----------5--------5--------------4--------4--------
B|-----0--------0--------0--------0--------0-----------0--------0--------0-----0--------0--------0--
G|--------------------------------------------------------------------------------------------------
D|--------------------------------------------------------------------------------------------------
A|--3--------3--------3--------3--------3--------3--2--------2--------2-----0--------0--------0-----
E|--------------------------------------------------------------------------------------------------

Stave 7:

D|--------5--------5--------7--------5--------4/5--------5--------5--------7--------5--------5-----
B|-----0--------0--------0--------0--------0----------0--------0--------0--------0--------0--------
G|-------------------------------------------------------------------------------------------------
D|--5--------5--------5--------5--------5----------4--------4--------4--------4--------4--------4--
A|-------------------------------------------------------------------------------------------------
E|-------------------------------------------------------------------------------------------------

Stave 8:

D|--------5--------5--------7--------5--------5-----------5--------5--------------4--------4--------
B|-----0--------0--------0--------0--------0-----------3--------3--------3-----3--------3--------3--
G|--------------------------------------------------------------------------------------------------
D|--------------------------------------------------0--------0--------0-----0--------0--------0-----
A|--3--------3--------3--------3--------3--------3--------------------------------------------------
E|--------------------------------------------------------------------------------------------------

http://www.guitartabcreator.com
Guitar Tab Creator is intended to store guitar tab created through the tool. It currently does not support in-line text editing. Any text you place in here will be lost. If you need to comment on your tab, please use the "Tab Notes" section located below.