Sound will begin in 5 seconds

O For A Thousand (Gateway)

01234567891011121314151617181920212223
E
B
G
D
A
E
B
0 1 2 3 4 5 6 7 8 9 10 11 12 13 14 15 16 17 18 19 20 21 22 23
Song Science #1: How Pros Use 6 Chords to Write Hit Songs
(/) Slide Up  (\) Slide Down  (h) Hammer On  (p) Pull Off  (b) Bend (r) Release (v) Vibrato

Stave 1:

E|--0------------------------------------------------
B|--0------------------------------------------------
G|--9-------------9-----8--9-------------9-----8--9--
D|--9----------9----------------------9--------------
A|--7-------7--------9-------------7--------9--------
E|--0----0----------------------0--------------------

Stave 2:

E|-------------------------------------------------------------------------
B|--5-----5-----5-----5-----5-----5-----5-----5-----5-------9-----7-----7--
G|-------------------------------------------------------------------------
D|-----6-----6-----6-----6-----6-----6-----6-----6-----6/9-----9-----9-----
A|-------------------------------------------------------------------------
E|-------------------------------------------------------------------------

Stave 3:

E|----------------------------------------------------------------------------------
B|--5-----5-----5-------2-----2-----2-------5-------9-----7-------5-----5-----5-----
G|----------------------------------------------------------------------------------
D|-----6-----6-----6\2-----2-----2-----2/6-----6/9-----9-----9\6-----6-----6-----6--
A|----------------------------------------------------------------------------------
E|----------------------------------------------------------------------------------

Stave 4:

E|--12--12----------12--12----------
B|--10--9---10--12--10--9---10--12--
G|--9---9---11--11--9---9---11--11--
D|--9---9---11--9---9---9---11--9---
A|----------9---------------9-------
E|----------------------------------

Stave 5:

E|--
B|--
G|--
D|--
A|--
E|--

Stave 6:

E|--
B|--
G|--
D|--
A|--
E|--

http://www.guitartabcreator.com
Guitar Tab Creator is intended to store guitar tab created through the tool. It currently does not support in-line text editing. Any text you place in here will be lost. If you need to comment on your tab, please use the "Tab Notes" section located below.