Sound will begin in 5 seconds

Come Lord Jesus (Even So Come)

Chords
01234567891011121314151617181920212223
E
B
G
D
A
E
B
0 1 2 3 4 5 6 7 8 9 10 11 12 13 14 15 16 17 18 19 20 21 22 23
Song Science #1: How Pros Use 6 Chords to Write Hit Songs
(/) Slide Up  (\) Slide Down  (h) Hammer On  (p) Pull Off  (b) Bend (r) Release (v) Vibrato

Stave 1:

E|----------------15--14-------------------15--14--------------------------------
B|--10v----10/12----------10/12v----10/12----------10/12v----10/12--15-----------
G|----------------------------------------------------------------------12--11v--
D|-------------------------------------------------------------------------------
A|-------------------------------------------------------------------------------
E|-------------------------------------------------------------------------------

Stave 2:

E|--------------------------------------------------------------------------------------------------
B|--13--13--13--13--13--13--13--13--13--13--13--13--12--12--12--12--12--12--12--12--12--12--12--12--
G|--------------------------------------------------------------------------------------------------
D|--------------------------------------------------------------------------------------------------
A|--------------------------------------------------------------------------------------------------
E|--------------------------------------------------------------------------------------------------

Stave 3:

E|--------------------------------------------------------------------------------------------------
B|--12--12--12--12--12--12--13--13--13--12--12--12--------------------------------------------------
G|--------------------------------------------------14--14--14--14--14--14--14--14--14--14--14--14--
D|--------------------------------------------------------------------------------------------------
A|--------------------------------------------------------------------------------------------------
E|--------------------------------------------------------------------------------------------------

Stave 4:

E|--_----------------------------------------------------
B|--12v----13v----12v----12v----12v----13v----15v----15---
G|--12-----12-----12-----11-----12-----12-----12-----11v--
D|--_----------------------------------------------------
A|--_----------------------------------------------------
E|--_----------------------------------------------------

Stave 5:

E|--_-----------15--14--_------------------15--14------
B|--13----10/12----------15----13v----10/12----------15--
G|--12-------------------14----12--------------------14--
D|--_-------------------_------------------------------
A|--_-------------------_------------------------------
E|--_-------------------_------------------------------

Stave 6:

E|---------------------------------------------------------------------
B|--15--15--13--12---------15--15--13--12---------15--15--13--12-------
G|------------------12v--------------------12v--------------------14v--
D|---------------------------------------------------------------------
A|---------------------------------------------------------------------
E|---------------------------------------------------------------------

http://www.guitartabcreator.com
Guitar Tab Creator is intended to store guitar tab created through the tool. It currently does not support in-line text editing. Any text you place in here will be lost. If you need to comment on your tab, please use the "Tab Notes" section located below.