Sound will begin in 5 seconds

Before My Body Is Dry

01234567891011121314151617181920212223
E
B
G
D
A
E
B
0 1 2 3 4 5 6 7 8 9 10 11 12 13 14 15 16 17 18 19 20 21 22 23
Song Science #1: How Pros Use 6 Chords to Write Hit Songs
(/) Slide Up  (\) Slide Down  (h) Hammer On  (p) Pull Off  (b) Bend (r) Release (v) Vibrato

Stave 1:

E|---------------------------------------------------------------------------------
B|---------6-----------------------------------------------------------------------
G|--8v--8-----6------------6-----------------6------------------------------6------
D|---------------8--6v--8-----8v------4h6/8-------6/8\6----4--6--8--6----4---------
A|---------------------------------------------------------------------------------
E|---------------------------------------------------------------------------------

Stave 2:

E|-------------------------------------------------------------------------------------6-------
B|----------7--6----------------------------9--7--6------------------------------7--9----------
G|-------8--------6-------------6--------------------8p6--6--8--8--8h6--6--8--8-----------6/8--
D|----8--------------8--6\4--6-----4v--4/8-----------------------------------------------------
A|---------------------------------------------------------------------------------------------
E|---------------------------------------------------------------------------------------------

Stave 3:

E|----------------------------------------------------------------------------------------------
B|-------6h7--6---------------------------6h7--6-------------9------------6h7--6----------------
G|----6----------8--8----8--6--8--8----6----------8--8----8-------6----6----------8--8-----6h8--
D|--------------------------------------------------------------------------------------8-------
A|----------------------------------------------------------------------------------------------
E|----------------------------------------------------------------------------------------------

Stave 4:

E|-----------------------------------------------------------------------------
B|----6/9--9--------11--14--14--------14b16--14----14--12--11------------------
G|--------------11----------------11---------------------------13--11--13--13--
D|-----------------------------------------------------------------------------
A|-----------------------------------------------------------------------------
E|-----------------------------------------------------------------------------

http://www.guitartabcreator.com
Guitar Tab Creator is intended to store guitar tab created through the tool. It currently does not support in-line text editing. Any text you place in here will be lost. If you need to comment on your tab, please use the "Tab Notes" section located below.