Sound will begin in 5 seconds

Blood Thyrst (Lugubrious Descent)

Chords
01234567891011121314151617181920212223
E
B
G
D
A
E
B
0 1 2 3 4 5 6 7 8 9 10 11 12 13 14 15 16 17 18 19 20 21 22 23
Song Science #1: How Pros Use 6 Chords to Write Hit Songs
(/) Slide Up  (\) Slide Down  (h) Hammer On  (p) Pull Off  (b) Bend (r) Release (v) Vibrato

Stave 1:

E|-------------------------------------------------------------------------------------
B|-------------------------------------------------------------------------------------
G|-------------------------------------------------------------------------------------
D|---------------10------8--11--8--10------------10-----------------------------10-----
A|--8--11--8--7------10----------------10--7--8------11--10--7-----------8--10------7--
E|--------------------------------------------------------------8--6--9----------------

Stave 2:

E|---------------------------------------------------------------------------------------------
B|---------------------------------------------------------------------------------------------
G|--12-----------------------------10----------------------------------------------------------
D|------13--10--12--9----------10------12--9--12--10--13------9--12--9--------------------9/---
A|---------------------10--12-----------------------------10------------8--11---------10-------
E|-----------------------------------------------------------------------------8--10-----------

Stave 3:

E|--------------
B|--------------
G|--------------
D|--5--3--------
A|--3--2--6--5--
E|--------4--3--

Stave 4:

E|-------------------------------------------------------------------------------------
B|--1--0--0--1\---------1-----------------0-----------------0-----------------0--------
G|--2--1--2--2-------2-----2-----------1-----1-----------2-----2-----------1-----1-----
D|--2--2--3--2----2-----------2-----2-----------2-----3-----------3-----2-----------2--
A|--0--2--3--0-0-----------------2-----------------3-----------------2-----------------
E|-------------------------------------------------------------------------------------

Stave 5:

E|--------------------------------------------------------------------------
B|--------------------------------------------------------------------------
G|-----1--------------------------------------------------------------------
D|--3-----3-----2-----------------2--5--------------5--------3--------5-----
A|-----------3-----3--1--4--1--3--------3--6--3--5-----5--3-----3--5-----5\\
E|--------------------------------------------------------------------------

Stave 6:

E|-----------------------
B|-----------------------
G|-----------------------
D|--5--3--------3--------
A|--3--2--6--5-----6--5--
E|--------4--3-----------

http://www.guitartabcreator.com
Guitar Tab Creator is intended to store guitar tab created through the tool. It currently does not support in-line text editing. Any text you place in here will be lost. If you need to comment on your tab, please use the "Tab Notes" section located below.