Sound will begin in 5 seconds

Forest

01234567891011121314151617181920212223
E
B
G
D
A
E
B
0 1 2 3 4 5 6 7 8 9 10 11 12 13 14 15 16 17 18 19 20 21 22 23
Song Science #1: How Pros Use 6 Chords to Write Hit Songs
(/) Slide Up  (\) Slide Down  (h) Hammer On  (p) Pull Off  (b) Bend (r) Release (v) Vibrato

Stave 1:

E|--------------------3--0-----------------------------------3--1--1--1--3-----------------------1v--3v--
B|--------1--3--1--3-----------------0--------3-----------1-----------------3-----------3--1--3----------
G|--------------------------------0--------0-----------2-----------------------------2-------------------
D|-----2-----------------------0--------0-----------2-----------------------------3----------------------
A|--3--------------------------------------------0-------------------------------------------------------
E|--------------------------3--------------------------------------------------1-------------------------

Stave 2:

E|--------------------3--1--0--------------------------------------------------------------------3--------
B|--------1--3--1--3--------------------0--0--0--0--3-----------1--3--1--0--------------------------------
G|-----------------------------------0-----------------------2-----------------------3--3--4--3-----------
D|-----2--------------------------------------------------2-----------------------2--------------------2--
A|--3-----------------------------2--------------------0-----------------------3--------------------3-----
E|-----------------------------3--------------------------------------------1-----------------------------

Stave 3:

E|-----------------------0--------------------1--0--3-----------------------------------------9--11--
B|--------1--3--0-----1-----------------3--1--------------------------6--4---------------------------
G|-----------------2-----------------0-----------------6-----------------------3--------1------------
D|-----2--------------------------0-----------------------6--4--------------------3--------1---------
A|--3--------------------------2-----------------------------------5--------1--------3---------------
E|--------------------------3-----------------------------------6------------------------------------

Stave 4:

E|-----------------------1--3--------------------------------------------------------------------------12--
B|--------------5-----------------------------4p1--3--5--6--------------------------4-----9--10------------
G|-----------4-----6--1-----------7-----5----------------------------7--------6----------------------------
D|--------3-------------------------------------------------3--------------8-------------------------------
A|-----3-----------------------------7-----5-------------------2--3-----7--------7-----6------------2------
E|--3--------------------------6-----------------------------------------------------------------3---------

Stave 5:

E|--6--8-----------8--10--11--12--
B|--------------3-----------------
G|--------------------------------
D|-----------5--------------------
A|--------------------------------
E|--------3-----------------------

http://www.guitartabcreator.com
Guitar Tab Creator is intended to store guitar tab created through the tool. It currently does not support in-line text editing. Any text you place in here will be lost. If you need to comment on your tab, please use the "Tab Notes" section located below.