Sound will begin in 5 seconds

Ma3ak Alby Amr Diab

01234567891011121314151617181920212223
E
B
G
D
A
E
B
0 1 2 3 4 5 6 7 8 9 10 11 12 13 14 15 16 17 18 19 20 21 22 23
(/) Slide Up  (\) Slide Down  (h) Hammer On  (p) Pull Off  (b) Bend (r) Release (v) Vibrato

Capo Fret 2

[Intro]

E|-0-2-3----2----0---------------------------0-2-3-0-3-2-0---0-0---------------------
B|--------------------3-1----0-------0---------------------3--------3-1----0-------0-
G|-----------------------------2-0-2-----------------------------------------2-0-2---
D|-----------------------------------------------------------------------------------
A|-----------------------------------------------------------------------------------
E|-----------------------------------------------------------------------------------

[Verse] x2

E|-0--------------------0-------------------------------------------------------
B|---3-1-0-3-1-1----3-3---3-1-0----1-1-3-1-0---0-1p0--------0-0-1-0-----------0-
G|-------------------------------------------2-------2-2------------2-2-0-0-2---
D|------------------------------------------------------------------------------
A|------------------------------------------------------------------------------
E|------------------------------------------------------------------------------

[Chorus]

E|------------------2-------------------------------------------0----------------------0---
B|-----3-1-0-1----3---3-3-1-0-------0-1-0--------3-1-0-1----3-3---3-1-0-2-3----3-1-0-3---1-
G|----------------------------2-0-2--------------------------------------------------------
D|-2-2---------------------------------------2-2-------------------------------------------
A|-----------------------------------------------------------------------------------------
E|-----------------------------------------------------------------------------------------



E|---2---------------------------------------------------------------
B|-3---3-3-1-0-------0-1-0----3-1-0-------0-0-------1-0----0-1p0---0-
G|-------------2-0-2----------------2-0-0-----2-2-2--------------2---
D|-------------------------------------------------------------------
A|-------------------------------------------------------------------
E|-------------------------------------------------------------------

[Solo]

E|-0-2-3----3-2-0------0-2----5-3-2----0-2-3----3-2-0------0---
B|-------------------3-----------------------------------3---3-
G|-------------------------------------------------------------
D|-------------------------------------------------------------
A|-------------------------------------------------------------
E|-------------------------------------------------------------

http://www.guitartabcreator.com
Guitar Tab Creator is intended to store guitar tab created through the tool. It currently does not support in-line text editing. Any text you place in here will be lost. If you need to comment on your tab, please use the "Tab Notes" section located below.